Oops, an error
Loading. Please wait.

Symphony tab

version 1
version 1

Whole song

  • Full fingerstyle arrangement by Andrew Foy.
  • Fingerstyle arrangemant by Let'sPlayGuitar: https:... Show more

Video

4,297 views 519 this week
2 commentsread comments
1 2 3 4 5
x 9
add to favorites
×
Save as Personal and add changes to this tab that will be seen only by you. Learn more ›
×
You can save this tab as Personal to edit and correct it or add notes. All changes will be seen only by you. Learn more »
launch autoscroll
font size
0
reset
how to read this tab
guitar tuner
edit
Autoscroll
slow
fast
+/-
esc
set tempo
stop
About this tab version
Full fingerstyle arrangement by Andrew Foy. Was this info helpful? Yes No
https://www.youtube.com/watch?v=XdoR3Mw217M 

[Intro]
e|--0-----1--0-------------<12>----------------------------------------------|
B|--1--1--1--1--10h12--13--------<12>----------13--8h10----------------------|
G|--0--0--2--0-------------------------9--<12>-----0-------------------------|
D|-----2--3----------------------------------------0-------------------------|
A|--3--------3----------0--------------------------8-------------------------|
E|--------------------------------0---------0--------------------------------|

[Verse]
e|--0-0-0--------------------------------------------------------------------|
B|--1------1h3-3-1--1--------------------------------------------------------|
G|--0------0--------0h2------2/7-7-7------7h9-7------------------------------|
D|---------2--------3-----------------10------------10--7\-------------------|
A|--3---------------------3--0--------------------------8--------------------|
E|-------------------------------------0---------0---------------------------|

e|--0-0-0--------------------------------------------------------------------|
B|--1------1h3-3-1--1--------------------------------------------------------|
G|--0------0--------0h2------2/7-7-7------7h9-7------------------------------|
D|---------2--------3-----------------10------------10--7\-------------------|
A|--3---------------------3--0--------------------------8--------------------|
E|-------------------------------------0---------0---------------------------|

e|--0-1-0--1-0---------------------------------------------------------------|
B|--1-----------1-1----3/5---------------------------------------------------|
G|--0-------------0h2---------2/7-7-7------7h9-7-----------------------------|
D|---------2------3--------------------10-------------10--7\-----------------|
A|--3------------------3------0---------------------------8------------------|
E|--------------------------------------0---------0--------------------------|

e|--0-1-0--1-0---------------------------------------------------------------|
B|--1-----------1-1----------------------------------------------------------|
G|--0-------------0h2---2p0---2/7-7-7------7h9-7-----------------------------|
D|---------2------3--------------------10-------------10--7\-----------------|
A|--3-------------------3-----0---------------------------8------------------|
E|--------------------------------------0---------0--------------------------|

[Pre-chorus]
e|-----0---------------------------------------------------------------------|
B|-1-1---5/10----------10-10-8-------------8---------------------------------|
G|-----------------10--10-------9---9---9------------------------------5-----|
D|--------------------------------------10----9-----9----9h10-9\7-7----------|
A|--------------8------8-------------------------10---10------------8-----8--|
E|--------------------------------8---8--------------------------------------|

e|---------------------------------------------------------------------------|
B|-------8/10-------10-10-8------------------8-------------------------------|
G|--5--9------------10--------9---(9)-9----9------------(0)------7-----------|
D|--7-----------------------------(0)-----10-------9----(9)----9-------------|
A|-------------8-x--8-------x---------x---------x----10--x--10-------x-x-----|
E|---------------x----------x---8-----x-8-------x--------x-----------x-x-----|

[Chorus]
e|-------3-0-3-5/8-8/10--10-10---8----8-(8)-----8-----8-----8\-------------0-|
B|-1-3-5------------------8--8---8----8-(8)-(8)-8-----8-----8\---------0h1---|
G|------------------------0--0---0----0-(0)-(0)-0-(0)-0---0-------2h4--------|
D|------------------------7--7---7----7-(7)-(7)-0-(0)-0----------------------|
A|------------------------8----x-8-8--x--x------7-(7)-x---------x------0-----|
E|-3---------------------------x------x--x------8-----x-8-------x------------|

e|------------------------------------10-10---8----8-(8)---------------------|
B|---0-----0--1-----------------------8--8----8----8-(8)-(8)--0h1-------1----|
G|---0-----0--0-----2-----------------0--0----0----0-(0)-(0)--0---------0----|
D|------2--2--------3--(3)---(3)------7--7----7----7-(7)-(7)--2----(2)--2----|
A|-x-------x-----x---------x-----x-x--8-----x-8-8--x--x-------3---------x----|
E|-x-0-----x-----x--1------x-----x-x--------x------x--x-----------------x----|

e|-------------------0------------------------------------------<12>---------|
B|-----1------0--0h1-------0----0--1------------------10h12--13------<12>----|
G|-----0----2----0---------0----0--0----2------------------------------------|
D|---2-----------------------2--2-------3-(3)---(3)--------------------------|
A|-3------x------0------x-------x-----x-------x-----x---------0--------0-----|
E|--------x-------------x--0----x-----x-1-----x-----x------------------------|

e|---------------------------------------------------------------------------|
B|-----------13--8h10--------------------------------------------------------|
G|---9--<12>-----0-----------------------------------------------------------|
D|---------------0-----------------------------------------------------------|
A|---------------8-----------------------------------------------------------|
E|-------0-------------------------------------------------------------------|

[Verse]
e|--0-0-0--------------------------------------------------------------------|
B|--1-----1h3-3-1-1------------1---------------------------------------------|
G|--0-----0-------0h2----------0------2/7-7-7-----7h9-7-----------------5----|
D|--------2-------3----------2-----------------10---------10---7------7------|
A|--3---x---------x---3-x--3-----x-x--0-----x-----------x----8----x-8-----x-x|
E|------x---------x-----x--------x-x--------x--0--------x---------x-------x-x|

e|--0-0-0--------------------------------------------------------------------|
B|--1-----1h3-3-1-1------------1---------------------------------------------|
G|--0-----0-------0h2----------0------2/7-7-7-----7h9-7-----------------5----|
D|--------2-------3----------2-----------------10---------10---7------7------|
A|--3---x---------x---3-x--3-----x-x--0-----x-----------x----8----x-8-----x-x|
E|------x---------x-----x--------x-x--------x--0--------x---------x-------x-x|

   o        o        o        o        o           o          o       o
e|-0-1-0--1-0----------------------------------------------------------------|
B|-1---1------1-1-------3/5--------------------------------------------------|
G|-0---0--------0h2--------------------2/7-7-7-----7h9-7----------------5----|
D|--------2-----3---------------5---------------10---------10---7-----7------|
A|-3---x--------x----3------x-3----x-x-0-----x-----------x----8---x-8-----x-x|
E|-----x--------x-----------x------x-x-------x--0--------x--------x-------x-x|

   o        o        o        o                                    
e|-0-1-0--1-0----------------------------------------------------------------|
B|-1---1------1-1------------------------------------------------------------|
G|-0---0--------0h2-----2p0------------2/7-7-7-----7h9-7---------------------|
D|--------2-----3----3----------2---------------10----------10--7\-----------|
A|-3---x--------x-----------x-3----x-x-0------------------------8------------|
E|-----x--------x-----------x------x-x----------0---------0------------------|

[Pre-chorus]
               o     o              o     o             o     o
e|-----0---------------------------------------------------------------------|
B|-1-1---5/10--------10-10--8------------------------------------------------|
G|----------------10-------------9-----9-----9-12----------------------------|
D|----------------------------------------------------9----9-----9h10-9------|
A|-------------8--------x------x-------------x------x---10-------x-------x---|
E|----------------------x------x----8--------x------x------------x-------x---|

     o     o                 o       o              o     o              o
e|---------------------------------------------------------------------------|
B|---------------------8/10---------10-10--8---------------------------------|
G|------5-----5--9--------------10---------------9-----9-----9-12------------|
D|-7-------------------------------------------------------------------9-----|
A|---8--------x------x-------8---------x------x--------------x------x----10--|
E|------------x------x-----------------x------x-----8--------x------x--------|

e|---------------------------------------------------------------------------|
B|---------------------------------------------------------------------------|
G|--0-------7----------------------------------------------------------------|
D|--9-----9------------------------------------------------------------------|
A|--x--10------x-x-----------------------------------------------------------|
E|--x----------x-x-----------------------------------------------------------|

[Chorus]
e|-------3-0-3-5/8-8/10--10-10---8----8-(8)-----8-----8-----8\-------------0-|
B|-1-3-5------------------8--8---8----8-(8)-(8)-8-----8-----8\---------0h1---|
G|-0----------------------0--0---0----0-(0)-(0)-0-(0)-0---0-------2h4--------|
D|------------------------7--7---7----7-(7)-(7)-0-(0)-0----------------------|
A|------------------------8----x-8-8--x--x------7-(7)-x---------x------0-----|
E|-3---------------------------x------x--x------8-----x-8-------x------------|

e|------------------------------------10-10---8----8-(8)---------------------|
B|---0-----0--1-----------------------8--8----8----8-(8)-(8)--0h1-------1----|
G|---0-----0--0-----2-----------------0--0----0----0-(0)-(0)--0---------0----|
D|------2--2--------3--(3)---(3)------7--7----7----7-(7)-(7)--2----(2)--2----|
A|-x-------x-----x---------x-----x-x--8-----x-8-8--x--x-------3---------x----|
E|-x-0-----x-----x--1------x-----x-x--------x------x--x-----------------x----|

e|-------------------0------------------------------------------<12>---------|
B|-----1------0--0h1-------0----0--1------------------10h12--13------<12>----|
G|-----0----2----0---------0----0--0----2------------------------------------|
D|---2-----------------------2--2-------3-(3)---(3)--------------------------|
A|-3------x------0------x-------x-----x-------x-----x---------0--------0-----|
E|--------x-------------x--0----x-----x-1-----x-----x------------------------|

e|---------------------------------------------------------------------------|
B|-----------13--8h10--------------------------------------------------------|
G|---9--<12>-----0-----------------------------------------------------------|
D|---------------0-----------------------------------------------------------|
A|---------------8-----------------------------------------------------------|
E|-------0-------------------------------------------------------------------|

[Interlude]
e|----------3--0--------------------------<12>-------------------------------|
B|-1--1--1--1--0--3--1--1--1----10h12--13------<12>----------13--8h10\-------|
G|-0--0--0--0-----0--2--2--2-------------------------9--<12>-----0-----------|
D|-2--2--2-----0-----3-----3-------------------------------------0-----------|
A|----3----------------------x---------0--------0----------------8-----------|
E|-0-------------------------x----------------------------0------------------|

e|--5p3p0----0-----------------3--0------------------------0-----------------|
B|---------3---3p1----1--1--1--1--0--3--1--1--1------0-0h1---0------1--------|
G|-----------------2--0--0--0--0--0--0--2--2--2----2---------0----0-0--2-----|
D|--------------------2--2--2-----------3-----3----------------2--2----3-----|
A|--------------------3--------------------------x-----0---------------------|
E|-----------------------------------------------x-----------0----0----1-----|

[Pre-chorus]
e|-----0-3/5--------5-5-3-0-----0-----0-3-------------------------------0----|
B|-1-1--------------------------1-----1---0----------0h1-0------1----1-------|
G|--------------(0)-------------0-----0---0-----------------2--------2-------|
D|------------3-----3---------------------------------------2--------2-------|
A|---------------------------3-----3-----------(2)------------0---0----------|
E|-------------------------------------------3-----3-------------------------|

e|-3/5--------5-5-3-0-----0-----0--3-----------------------------------------|
B|------------------------1-----1-----0------------0-------------------------|
G|--------(0)-------------0-----0-----0------------0-------------------------|
D|------3-----3----------------------------------0---------------------------|
A|---------------------3-----3--------------x---------x--x-------------------|
E|---------------------------------------3--x--3------x--x-------------------|

[Chorus]
e|-------3-0-3-5/8-8/10--10-10---8----8-(8)-----8-----8-----8\-------------0-|
B|-1-3-5------------------8--8---8----8-(8)-(8)-8-----8-----8\---------0h1---|
G|------------------------0--0---0----0-(0)-(0)-0-(0)-0---0-------2h4--------|
D|------------------------7--7---7----7-(7)-(7)-0-(0)-0----------------------|
A|------------------------8----x-8-8--x--x------7-(7)-x---------x------0-----|
E|-3---------------------------x------x--x------8-----x-8-------x------------|

e|------------------------------------10-10---8----8-(8)---------------------|
B|---0-----0--1-----------------------8--8----8----8-(8)-(8)--0h1-------1----|
G|---0-----0--0-----2-----------------0--0----0----0-(0)-(0)--0---------0----|
D|------2--2--------3--(3)---(3)------7--7----7----7-(7)-(7)--2----(2)--2----|
A|-x-------x-----x---------x-----x-x--8-----x-8-8--x--x-------3---------x----|
E|-x-0-----x-----x--1------x-----x-x--------x------x--x-----------------x----|

e|-------------------0--------------------------------10-10---8---8-(8)------|
B|-----1------0--0h1-------0----0--1-------------------8--8---8---8-(8)-(8)--|
G|-----0----2----0---------0----0--0----2--------------0--0---0---0-(0)-(0)--|
D|---2-----------------------2--2-------3-(3)---(3)----7--7---7---7-(7)-(7)--|
A|-3------x------0------x-------x-----x-------x-----x--8----x-8-8-x--x-------|
E|--------x-------------x--0----x-----x-1-----x-----x-------x-----x--x-------|

e|-8-----8-----8\------------0-----------------------------------10-10----8--|
B|-8-----8-----8\--------0h1------0----0--1-----------------------8--8----8--|
G|-0-(0)-0---0-------2h4----------0----0--0-----2-----------------0--0----0--|
D|-0-(0)-0---------------------------2-2--------3--(3)---(3)------7--7----7--|
A|-7-(7)-x---------x-----0------x------x-----x---------x-----x-x--8-----x-8--|
E|-8-----x-8-------x------------x-0----x-----x--1------x-----x-x--------x----|

e|----8-(8)-----8-----8-----8\------------0----------------------------------|
B|----8-(8)-(8)-8-----8-----8\--------0h1------0----0-1----------------------|
G|----0-(0)-(0)-0-(0)-0---0-------2h4----------0----0-0----2-----------------|
D|----7-(7)-(7)-0-(0)-0---------------------------2-2------3--(3)---(3)------|
A|-8--x--x------7-(7)-x---------x-----0------x------x---x---------x-----x----|
E|----x--x------8-----x-8-------x------------x-0----x---x--1------x-----x----|

e|-----------<12>------------------------------------------------------------|
B|-10h12--13------<12>-----------13--8h10------------------------------------|
G|----------------------9--<12>------0---------------------------------------|
D|-----------------------------------0---------------------------------------|
A|---------0-------------------------8---------------------------------------|
E|------------------0-------0------------------------------------------------|


************************************

| x   Dead note
|(n)  Ghost note
| h   Hammer-on
| p   Pull-off
| /   Slide up
| \   Slide down
|<->  Harmonic
| o   Wrist thump

************************************

            
            
Suggest correction
Creating personal tab
Creating personal tab
You can edit any tab online and save it as your Personal.

You can edit, replace or remove any tab part or add personal notes – all changes will be seen only by you.

Personal tabs can be accessed anytime from any device, even offline.
Learn more »
comments
print report bad tab
2 comments total.
0 reply
pibblesfox 12 Aug 09, 2017 04:48 PM, edited on August 10 2017, 09:56 pm

Good tab

0 reply
abbyrose11 10 6 days ago

what grade is this

guest
You may want to rate the tab now too:
select rating
Wanna post a correction for this tab? Suggest correction