Oops, an error
Loading. Please wait.

Trapdoor tab

by Cleft
187 views 3 this week
no commentswrite comment
1 2 3 4 5
1 last vote to show rating
add to favorites
×
Save as Personal and add changes to this tab that will be seen only by you. Learn more ›
×
You can save this tab as Personal to edit and correct it or add notes. All changes will be seen only by you. Learn more »
launch autoscroll
font size
0
reset
how to read this tab
guitar tuner
edit
Autoscroll
slow
fast
+/-
esc
set tempo
stop
Author
Difficulty
About this tab version
Finally, a tab for Cleft. Was this info helpful? Yes No
I'm not 100% certain what all the effects are, but the riffs are all there.

Any suggestins or corrections please let me know :)


e |------12-----------------------------------------------[7]--------------|
B |------15(17)----15p12p10----10-------------------------[7]--8--3-5------|
G |-------------------------12----------------------------------------4--4-|
D |----------------------------------17p14p12-----12-----------------------|
A |--------------------------------------------10--------------7--2-3------|
E |-0-------------------------------------------------0---------------3--3-|

e |------12-----------------------------------------------[7]---------------------|
B |------15(17)----15p12p10----10-------------------------[7]--8--10-12-12h13--12-|
G |-------------------------12----------------------------------------------------|
D |----------------------------------17p14p12-----12------------------------------|
A |--------------------------------------------10--------------7--9--10-10h12--10-|
E |-0-------------------------------------------------0---------------------------|

Looped, the same played over the top:

e |------12-----------------------------------------------[7]--------------|
B |------15(17)----15p12p10----10-------------------------[7]--8--3-5------|
G |-------------------------12----------------------------------------4--4-|
D |----------------------------------17p14p12-----12-----------------------|
A |--------------------------------------------10--------------7--2-3------|
E |-0-------------------------------------------------0---------------3--3-|

e |------12-----------------------------------------------[7]---------------------|
B |------15(17)----15p12p10----10-------------------------[7]--8--10-12-12h13--12-|
G |-------------------------12----------------------------------------------------|
D |----------------------------------17p14p12-----12------------------------------|
A |--------------------------------------------10--------------7--9--10-10h12--10-|
E |-0-------------------------------------------------0---------------------------|

Then this part:


e |--------0----------------0-----------------|
B |------0---0------0-----0---0-------0-----0-|
G |----4------4---4-----4-------4---4-----4---|
D |-------------------------------------------|
A |-------------------------------------------|
E |--3----------2-----3-----------5-----2-----|

e |--------0----------------0-----------------|
B |------0---0------0-----0---0-------0-----0-|
G |----4------4---4-----4-------4---4-----4---|
D |-------------------------------------------|
A |-------------------------------------------|
E |--3----------2-----3-----------5-----2-----|

e |------0------------------0---------------------|
B |----0---0------0-------0---0---------0-------0-|
G |--7-------7--6-------7-------7-----6-------9---|
D |-----------------------------------------------|
A |-----------------------------------------------|
E |-7---------5-------7-------------5-------9-----|


e |------0------------------0---------------------|
B |----0---0------0-------0---0---------0-------0-|
G |--7-------7--6-------7-------7-----6-------9---|
D |-----------------------------------------------|
A |-----------------------------------------------|
E |-7---------5-------7-------------5-------9-----|

e |-----------------------------------------------------------------------------------------------------------
B |-----------------------------------------------------------------------------------------------------------
G |9/11-11-11-11-11-11-11-11-11-11-11-11-9-9-9-9/11-11-11-11-11-11-11-11-11-9-9-9-9/11-11-11-11-11-11-11-11-11
D |0-0--0--0--0--0--0--0--0--0--0--0--0--0-0-0-0----0--0--0--0--0--0--0--0--0-0-0-0----0--0--0--0--0--0--0--0-
A |7/9--9--9--9--9--9--9--9--9--9--9--9--7-7-7-7/9--9--9--9--9--9--9--9--9--7-7-7-7/9--9--9--9--9--9--9--9--9-
E |9/10-10-10-10-10-10-10-10-10-10-10-10-9-9-9-9/10-10-10-10-10-10-10-10-10-9-9-9-9/10-10-10-10-10-10-10-10-10


e |-------------------------------------------------------------0--0--0--0--------|
B |----------------------------------------------------------0--0--0--0--0--------|
G |9-9-9-9/11-11-11-11-11-11-11-11-11-9-9-9-9/11-11-11-11-11-11-11-11-11-11-------|
D |0-0-0-0-0--0--0--0--0--0--0--0--0--0-0-0-0----0--0--0--0--0--0--0--0--0--------|
A |7-7-7-7/9--9--9--9--9--9--9--9--9--7-7-7-7/9--9--9--9--9--9--9--9--9--9--------|
E |9-9-9-9/10-10-10-10-10-10-10-10-10-9-9-9-9/10-10-10-10-10-10-10-10-10-10-------|


Octave pedal now adds a lower octave, plays again from the start:

e |------12-----------------------------------------------[7]--------------|
B |------15(17)----15p12p10----10-------------------------[7]--8--3-5------|
G |-------------------------12----------------------------------------4--4-|
D |----------------------------------17p14p12-----12-----------------------|
A |--------------------------------------------10--------------7--2-3------|
E |-0-------------------------------------------------0---------------3--3-|

e |------12-----------------------------------------------[7]---------------------|
B |------15(17)----15p12p10----10-------------------------[7]--8--10-12-12h13--12-|
G |-------------------------12----------------------------------------------------|
D |----------------------------------17p14p12-----12------------------------------|
A |--------------------------------------------10--------------7--9--10-10h12--10-|
E |-0-------------------------------------------------0---------------------------|


e |--------0----------------0-----------------|
B |------0---0------0-----0---0-------0-----0-|
G |----4------4---4-----4-------4---4-----4---|
D |-------------------------------------------|
A |-------------------------------------------|
E |--3----------2-----3-----------5-----2-----|

e |--------0----------------0-----------------|
B |------0---0------0-----0---0-------0-----0-|
G |----4------4---4-----4-------4---4-----4---|
D |-------------------------------------------|
A |-------------------------------------------|
E |--3----------2-----3-----------5-----2-----|

e |------0------------------0---------------------|
B |----0---0------0-------0---0---------0-------0-|
G |--7-------7--6-------7-------7-----6-------9---|
D |-----------------------------------------------|
A |-----------------------------------------------|
E |-7---------5-------7-------------5-------9-----|


e |------0------------------0---------------------|
B |----0---0------0-------0---0---------0-------0-|
G |--7-------7--6-------7-------7-----6-------9---|
D |-----------------------------------------------|
A |-----------------------------------------------|
E |-7---------5-------7-------------5-------9-----|

e |-----------------------------------------------------------------------------------------------------------
B |-----------------------------------------------------------------------------------------------------------
G |9/11-11-11-11-11-11-11-11-11-11-11-11-9-9-9-9/11-11-11-11-11-11-11-11-11-9-9-9-9/11-11-11-11-11-11-11-11-11
D |0-0--0--0--0--0--0--0--0--0--0--0--0--0-0-0-0----0--0--0--0--0--0--0--0--0-0-0-0----0--0--0--0--0--0--0--0-
A |7/9--9--9--9--9--9--9--9--9--9--9--9--7-7-7-7/9--9--9--9--9--9--9--9--9--7-7-7-7/9--9--9--9--9--9--9--9--9-
E |9/10-10-10-10-10-10-10-10-10-10-10-10-9-9-9-9/10-10-10-10-10-10-10-10-10-9-9-9-9/10-10-10-10-10-10-10-10-10


e |-------------------------------------------12-12-12-12-12-12-12-12-12-12-12-12-12-12-12-12-12-12-12-12--|
B |-------------------------------------------12-12-12-12-12-12-12-12-12-12-12-12-12-12-12-12-12-12-12-12--|
G |9-9-9-9/11-11-11-11-11-11-11-11-11-9-9-9-9-12-12-12-12-12-12-12-12-12-12-12-12-12-12-12-12-12-12-12-12--|
D |0-0-0-0-0--0--0--0--0--0--0--0--0--0-0-0-0-14-14-14-14-14-14-14-14-14-14-14-14-14-14-14-14-14-14-14-14--|
A |-------------------------------------------14-14-14-14-14-14-14-14-14-14-14-14-14-14-14-14-14-14-14-14--|
E |9-9-9-9/10-10-10-10-10-10-10-10-10-9-9-9-9-0--0--0--0--0--0--0--0--0--0--0--0--0--0--0--0--0--0--0--0---|


                                       x4
e |-------------------------------------||------|
B |-------------------------------------||------|
G |-------------------------------------||------|
D |-------------------------------------||------|
A |-------------------2-----------------||------|
E |- 0--12\---3--2--5---0--12\--3--2--5-||----0-|

Play the above riff with distortion, and a little bit of delay four times, the last two more staccato.


Below is an earlier riff which is played again, with a different harmony pedal going on. Honestly couldn't
tell you what effects they do use, but if you check out their rigs and shit on youtube you can find out.


e |--------0----------------0-----------------|
B |------0---0------0-----0---0-------0-----0-|
G |----4------4---4-----4-------4---4-----4---|
D |-------------------------------------------|
A |-------------------------------------------|
E |--3----------2-----3-----------5-----2-----|

e |--------0----------------0-----------------|
B |------0---0------0-----0---0-------0-----0-|
G |----4------4---4-----4-------4---4-----4---|
D |-------------------------------------------|
A |-------------------------------------------|
E |--3----------2-----3-----------5-----2-----|

e |------0------------------0---------------------|
B |----0---0------0-------0---0---------0-------0-|
G |--7-------7--6-------7-------7-----6-------9---|
D |-----------------------------------------------|
A |-----------------------------------------------|
E |-7---------5-------7-------------5-------9-----|


e |------0------------------0---------------------|
B |----0---0------0-------0---0---------0-------0-|
G |--7-------7--6-------7-------7-----6-------9---|
D |-----------------------------------------------|
A |-----------------------------------------------|
E |-7---------5-------7-------------5-------9-----|

e |-----------------------------------------------------------------------------------------------------------
B |-----------------------------------------------------------------------------------------------------------
G |9/11-11-11-11-11-11-11-11-11-11-11-11-9-9-9-9/11-11-11-11-11-11-11-11-11-9-9-9-9/11-11-11-11-11-11-11-11-11
D |0-0--0--0--0--0--0--0--0--0--0--0--0--0-0-0-0----0--0--0--0--0--0--0--0--0-0-0-0----0--0--0--0--0--0--0--0-
A |7/9--9--9--9--9--9--9--9--9--9--9--9--7-7-7-7/9--9--9--9--9--9--9--9--9--7-7-7-7/9--9--9--9--9--9--9--9--9-
E |9/10-10-10-10-10-10-10-10-10-10-10-10-9-9-9-9/10-10-10-10-10-10-10-10-10-9-9-9-9/10-10-10-10-10-10-10-10-10


e |-------------------------------------------12-12-12-12-12-12-12-12-12-12-12-12-12-12-12-12-12-12-12-12--|
B |-------------------------------------------12-12-12-12-12-12-12-12-12-12-12-12-12-12-12-12-12-12-12-12--|
G |9-9-9-9/11-11-11-11-11-11-11-11-11-9-9-9-9-12-12-12-12-12-12-12-12-12-12-12-12-12-12-12-12-12-12-12-12--|
D |0-0-0-0-0--0--0--0--0--0--0--0--0--0-0-0-0-14-14-14-14-14-14-14-14-14-14-14-14-14-14-14-14-14-14-14-14--|
A |-------------------------------------------14-14-14-14-14-14-14-14-14-14-14-14-14-14-14-14-14-14-14-14--|
E |9-9-9-9/10-10-10-10-10-10-10-10-10-9-9-9-9-12-12-12-12-12-12-12-12-12-12-12-12-12-12-12-12-12-12-12-12--|

e |---------------------------------------------------12-12-12-12-12-12-12-12-12-12-|
B |---12-12-12-12-12-12-12-12-12-12-12-12-12-12-12-12-12-12-12-12-12-12-12-12-12-12-|
G |---12-12-12-12-12-12-12-12-12-12-12-12-12-12-12-12-12-12-12-12-12-12-12-12-12-12-|
D |---14-14-14-14-14-14-14-14-14-14-14-14-14-14-14-14-14-14-14-14-14-14-14-14-14-14-|
A |---------------------------------------------------14-14-14-14-14-14-14-14-14-14-|
E |-0-------------------------------------------------12-12-12-12-12-12-12-12-12-12-|


e |-------------------------------------12--12--12-------------------|
B |-------------------------12--12--12-------------12-12-12----------|
G |-------------12--12--12----------------------------------12-12-12-|
D |---14-14-14-------------------------------------------------------|
A |------------------------------------------------------------------|
E |-0----------------------------------------------------------------|

continue until it fades out with all that crazy noise.


Like i said, please send any corrections



************************************

numbers in brackets eg 15(17) is a bend up to that note.

Numbers within parentheses eg [7] are harmonics

h=hammer on
p=pull off   

************************************
Suggest correction
Creating personal tab
Creating personal tab
You can edit any tab online and save it as your Personal.

You can edit, replace or remove any tab part or add personal notes – all changes will be seen only by you.

Personal tabs can be accessed anytime from any device, even offline.
Learn more »
Give kudos to tab author, rate the tab!
1 2 3 4 5
comments
print report bad tab
guest
You may want to rate the tab now too:
select rating
Wanna post a correction for this tab? Suggest correction