Oops, an error
Loading. Please wait.

Devil Woman Bass Tab

version 1
version 1

Whole song

Interactive

3,646 views 3 this week
no commentswrite comment
1 2 3 4 5
3 more votes to show rating
add to favorites
launch autoscroll
font size
0
reset
guitar tuner
Autoscroll
slow
fast
+/-
esc
set tempo
stop
Help us to improve Ultimate-Guitar.com Take our survey!
×
Author
--------------------------------------------------------------------
                     DEVIL WOMAN - Cliff Richard
--------------------------------------------------------------------

Tabbed By: Matt Broback
e-mail: 37hambone@gmail.com

Tuning:  Dropped D - D A D G

INTRO
|----------|--------|--------|----------|---------|
|:--------:|--------|------3-|:------3-:|--.--..--|
|:--------:|-----0-3|5---30-5|:----30-5:|--5-033--|
|----------|--------|--------|----------|-------30|

VERSE 1
|--------|----------|---------|--------|--------|--------|---------|
|--.---3-|:------3-:|--.-..-3-|------3-|------3-|--.---3-|--.--..3-|
|--5-30-5|:----30-5:|--5-030-3|5---30-5|----30-5|--5-30-5|--5-033-5|
|0-------|----------|---------|--------|--------|--------|---------|

|--------|---------|--------|---------|--------|--------|--------|-----------|
|--------|---------|--------|---------|---.----|---.----|--.-----|-----------|
|33--33--|----..--2|33--33--|----..--2|33-033--|55-053-1|1-1-111-|000-----.--|
|--------|00--2035-|--------|00--2035-|--------|--------|--------|----12\-053|

CHORUS
|--------|--------|--------|--------|--------|--------|--------|--------|
|--.---3-|------3-|------3-|--------|--.---3-|------3-|------3-|--------|
|--5-30-5|-55530-5|-55530-3|1-1-33-5|--5-30-5|-55530-5|-55530-0|1-1-33-5|
|0-------|--------|--------|--------|0-------|--------|--------|--------|

VERSE 2                                                               x3
|---------|----------|---------|--------|----------|---------|----------|
|----.--3-|:------3-:|--.-.-..-|------3-|:------3-:|-.--..---|:------3-:|
|--5-030-5|:----30-5:|--5-0-034|5---30-5|:----30-5:|-5-033--5|:----30-5:|
|0--------|----------|---------|--------|----------|------30-|----------|

|-----5------|---------|----------|--------|--------|--------|--------|
|--5/7-753h5-|:--------|---------:|--------|--...---|--------|--------|
|-5---------5|:3--33--5|5--..--23:|3--33--5|5-355--1|1-1-111-|000-30--|
|------------|---------|---2035---|--------|--------|--------|------53|

CHORUS          
|--------|--------|--------|--------|--------|--------|--------|--------|
|--.---3-|-----3--|-----3--|--------|--.---3-|------3-|------3-|--------|
|--5-30-5|-5030-5-|55530-01|11-333-5|-55-30-5|-55530-5|-55530-0|111-333-|
|0-------|--------|--------|--------|0-------|--------|--------|--------|

SOLO                                                               
|---------3|--7-5---|----------|----------|-----107--|------107---|-75-----|
|-------35-|-----57-|-------355|-------35-|--107-----|:--107-----:|---753--|
|111-3/5---|33-----3|1-1-3/5---|33333/5--5|----------|:----------:|------53|
|----------|--------|----------|----------|0---------|------------|--------|

VERSE 3                       . ss ssss
|--------|--------|--------|--5-5------|--------|--------|--------|--------|
|------3-|------3-|------3-|-----3-5---|------3-|------3-|--.---3-|--------|
|5-.-30-5|----30-5|----30-5|-5------530|5---30-5|----30-5|--5-30-5|55305530|
|--0-----|--------|--------|-----------|--------|--------|--------|--------|

|---------|----------|---------|---------|--------|--------|----------|-----------|
|----.----|----------|----.----|----.----|--------|--------|--------35|-----------|
|33--033--|55-3h5--02|33--033--|55--5--02|33--33--|55--53-1|1-1-13/5--|000-----.--|
|---------|------03--|---------|-----03--|--------|--------|----------|----12\-053|

OUTRO CHORUS
|--------|--------|--------|--------|--------|--------|--------|------------|
|--.---3-|-..---3-|------3-|--------|------3-|------3-|------3-|---------3h5|
|--5-30-5|-55-30-5|-55530-3|111-3335|--5530-5|-55530-5|-55530-0|111-333h5---|
|0-------|--------|--------|--------|0-------|--------|--------|------------|

                                          x3
|---------|--------|--------|---------------|
|:------3-|------3-|------3-|-----3h5-----5:|
|:--5530-5|-55530-5|-55530-0|113/5---335/7-:|
|-0-------|--------|--------|---------------|
Suggest correction
Give kudos to tab author, rate the tab!
1 2 3 4 5
comments
print report bad tab
guest
You may want to rate the tab now too:
select rating
Wanna post a correction for this tab? Suggest correction