Oops, an error
Loading. Please wait.

Devil Woman tab

version 1
version 1

Whole song

Interactive

163 views 6 this week
no commentswrite comment
1 2 3 4 5
3 more votes to show rating
add to favorites
×
Save as Personal and add changes to this tab that will be seen only by you. Learn more ›
×
You can save this tab as Personal to edit and correct it or add notes. All changes will be seen only by you. Learn more »
launch autoscroll
font size
0
reset
how to read this tab
guitar tuner
edit
Autoscroll
slow
fast
+/-
esc
set tempo
stop
Tuning: Drop D

(Gtr 2)

[Intro & Verse 1]
    D               G                F       C        D
e|----------------------------------------------------------------|
B|----------------------------------------------------------------|
G|----------------------------------------------------------------|
D|--4------------4--5-------------5--3-------2--------0-----------|
A|--5------------5--5-------------5--3-------3--------0-----------|
D|----------------------------------------------------0-----------|

(Gtr 2)
e|-----------------|
B|-----------------|
G|-7+--7+--7+7+-7--|
D|-----------------|
A|-----------------|
D|-----------------|

[Verse 1]
D                      G
  I've had nothing but bad luck
           F             C        D
Since the day I saw the cat at my door
D                 G
  So I came into you sweet lady
F               C        D
Answering your mystical call

[Bridge 1]     
             C         Dm
e|-------------------5--5-----|
B|--------5--5-------6--6-----|
G|--------5--5-------7--7-----|(x3)
D|--------5--5-------7--7-----|
A|----------------------------|
D|----------------------------|

        Bb                           A
e|------1--1--1--1--1--1--1--1-------0--0--0---------------------------------|
B|------2--2--2--2--2--2--2--2-------2--2--2---------------------------------|
G|------2--2--2--2--2--2--2--2-------2--2--2---------------------------------|
D|------2--2--2--2--2--2--2--2-------2--2--2---------------------------------|
A|------1--1--1--1--1--1--1--1-------0--0--0-----\---------------------------|
D|-----------------------------------------------\---------------------------|

C                      Dm
  Crystal ball on the table
C                        Dm
  Showing the future, the past
C                    Dm
  Same cat with them evil eyes
       Bb                        A
And I knew it was a spell she'd cast

[Chorus]
                                                        Bb          C            
e|-------------------------------------------------------1--1--1--1--3--3--3--3-----|
B|-------------------------------------------------------2--2--2--2--5--5--5--5-----|
G|-------------------------------------------------------2--2--2--2--5--5--5--5-----|
D|--------------3--0------------------------------3-0----2--2--2--2--5--5--5--5-----|
A|---/5-3-0-3-0-------5-3-0-3-0---------5-3-0-3-0--------1--1--1--1--3--3--3--3-----|
D|------------------------------3--0------------------------------------------------|

Dm              C
  She's just a devil woman
Dm          C
  With evil on her mind
Dm            C
  Beware the devil woman
Bb             C
  She's gonna get you
Dm              C
  She's just a devil woman
Dm          C
  With evil on her mind
Dm            C
  Beware the devil woman
Bb             C              D
  She's gonna get you from behind

[Interlude] 
e|----------------------------------------------------------------|
B|----------------------------------------------------------------|
G|----------------------------------------------------------------|
D|--4------------4--5-------------5--3-------2--------0-----------|
A|--5------------5--5-------------5--3-------3--------0-----------|
D|----------------------------------------------------0-----------|

[Verse 2]
e|----------------------------------------------------------------|
B|----------------------------------------------------------------|
G|----------------------------------------------------------------|
D|--4------------4--5-------------5--3-------2--------0-----------|
A|--5------------5--5-------------5--3-------3--------0-----------|
D|----------------------------------------------------0-----------|

(Gtr 2)
e|-----------------|
B|-----------------|
G|-7+--7+--7+7+-7--|
D|-----------------|
A|-----------------|
D|-----------------|

[Verse 2]
D                      G
Give me the ring on your finger
           F             C        D
Let me see the lines on your hand
D                 G
I can see me a tall dark stranger
F               C        D
Giving you what you hadn't planned

[Bridge 2]
          C          Dm
e|-------------------5--5-----|
B|--------5--5-------6--6-----|
G|--------5--5-------7--7-----|(x3)
D|--------5--5-------7--7-----|
A|----------------------------|
D|----------------------------|

        Bb                           A
e|------1--1--1--1--1--1--1--1-------0--0--0---------------------------------|
B|------2--2--2--2--2--2--2--2-------2--2--2---------------------------------|
G|------2--2--2--2--2--2--2--2-------2--2--2---------------------------------|
D|------2--2--2--2--2--2--2--2-------2--2--2---------------------------------|
A|------1--1--1--1--1--1--1--1-------0--0--0-----\----------------------------|
D|-----------------------------------------------\----------------------------|

C                      Dm
I drank the portion she offered me
C                      Dm
I found myself on the floor
C                      Dm
Then I looked in those big green eyes
       Bb                        A
And I wondered what I came there for

[Chorus]
                                                         Bb          C
e|-------------------------------------------------------1--1--1--1--3--3--3--3-----|
B|-------------------------------------------------------2--2--2--2--5--5--5--5-----|
G|-------------------------------------------------------2--2--2--2--5--5--5--5-----|:
D|--------------3--0------------------------------3-0----2--2--2--2--5--5--5--5-----|:
A|---/5-3-0-3-0-------5-3-0-3-0---------5-3-0-3-0--------1--1--1--1--3--3--3--3-----|
D|------------------------------3--0------------------------------------------------|

Dm              C
  She's just a devil woman
Dm          C
  With evil on her mind
Dm            C
  Beware the devil woman
Bb             C
  She's gonna get you
Dm              C
  She's just a devil woman
Dm          C
  With evil on her mind
Dm            C
  Beware the devil woman
                            Dm     C
She's gonna get you from behind
        Dm     C
from behind

[Interlude] 
D G F C D (x2)

e|----------------------------------------------------------------|
B|----------------------------------------------------------------|
G|----------------------------------------------------------------|
D|--4------------4--5-------------5--3-------2--------0-----------|
A|--5------------5--5-------------5--3-------3--------0-----------|
D|----------------------------------------------------0-----------|

[Verse 3]
e|----------------------------------------------------------------|
B|----------------------------------------------------------------|
G|----------------------------------------------------------------|
D|--4------------4--5-------------5--3-------2--------0-----------|
A|--5------------5--5-------------5--3-------3--------0-----------|
D|----------------------------------------------------0-----------|

(Gtr 2)
e|-----------------|
B|-----------------|
G|-7+--7+--7+7+-7--|
D|-----------------|
A|-----------------|
D|-----------------|

[Verse 3]
D                      G
If you're out on a moonlight night
           F             C        D
Be careful of them neighbourhood strays
D                      G
Of a lady with long black hair
           F             C        D
Tryin' to win you with her feminine ways

[Bridge 3]
e|-------------------5--5-----|
B|--------5--5-------6--6-----|
G|--------5--5-------7--7-----|(x3)
D|--------5--5-------7--7-----|
A|----------------------------|
D|----------------------------|

        Bb                         
e|------1--1--1--1--1--1--1--1-------0--0--0---------------------------------|
B|------2--2--2--2--2--2--2--2-------2--2--2---------------------------------|
G|------2--2--2--2--2--2--2--2-------2--2--2---------------------------------|
D|------2--2--2--2--2--2--2--2-------2--2--2---------------------------------|
A|------1--1--1--1--1--1--1--1-------0--0--0-----\---------------------------|
D|-----------------------------------------------\---------------------------|

[Bridge 3]
C                      Dm
Crystal ball on the table
C                      Dm
Showing the future, the past
C                      Dm
Same cat with them evil eyes
       Bb                        A
You'd better get out of there fast

[Chorus]
e|-------------------------------------------------------1--1--1--1--3--3--3--3-----|
B|-------------------------------------------------------2--2--2--2--5--5--5--5-----|
G|-------------------------------------------------------2--2--2--2--5--5--5--5-----|
D|--------------3--0------------------------------3-0----2--2--2--2--5--5--5--5-----|
A|---/5-3-0-3-0-------5-3-0-3-0---------5-3-0-3-0--------1--1--1--1--3--3--3--3-----|
D|------------------------------3--0------------------------------------------------|

[Chorus]
Dm              C
  She's just a devil woman
Dm          C
  With evil on her mind
Dm            C
  Beware the devil woman
Bb             C
  She's gonna get you
Dm              C
  She's just a devil woman
Dm          C
  With evil on her mind
Dm            C
  Beware the devil woman
Bb             C              D
  She's gonna get you


************************************

| + - harmonic
| \ - Slide down
| / - Slide up

************************************

            
            
Suggest correction
Creating personal tab
Creating personal tab
You can edit any tab online and save it as your Personal.

You can edit, replace or remove any tab part or add personal notes – all changes will be seen only by you.

Personal tabs can be accessed anytime from any device, even offline.
Learn more »
Give kudos to tab author, rate the tab!
1 2 3 4 5
comments
print report bad tab
guest
You may want to rate the tab now too:
select rating
Wanna post a correction for this tab? Suggest correction