Oops, an error
Loading. Please wait.

Gee Whizz Its You Bass Tab

46 views 1 this week
no commentswrite comment
1 2 3 4 5
3 more votes to show rating
add to favorites
launch autoscroll
font size
0
reset
guitar tuner
Autoscroll
slow
fast
+/-
esc
set tempo
stop
Help us to improve Ultimate-Guitar.com Take our survey!
×
Author
Gee Whizz It’s You
1961 release by Cliff Richard & The Shadows reached number 4 UK charts.
Bass performance Jet Harris.  Not exact as original but it does fit and 
This is how I Played it with my band a long time ago. Good UK rock and 
roll song. Play with a walking bass feel.  
Comments bass254@btinternet.com 

Intro: (Play Quavers)
G|-----------------------------------------------------------------------|
D|-7-7-7-7-7-7-7-7---7-7-7-7-7-7-7-7---7-7-7-7-7-7-7-7---7-7-7-7-7-7-7-7-|
A|-----------------------------------------------------------------------|
E|-----------------------------------------------------------------------|

Verse 1:
G|------------------------------6--------------------4---------4-|
D|--------4--7--4----------6--9---2-------------4--7------4--7---|
A|---4--7---------7--4---7----------4--2--4---5---------5--------|
E|-5-------------------------------------------------------------|

                                 (Break)
G|--------6---------6------------------------------------------4-|
D|---6--9------6--9------------4--------------------------4--7---|
A|-7---------7------------4--7----7------------4--7--4--7--------|
E|----------------------5--------------------5-------------------|

Verse 2:
G|------------------------------6--------------------4---------4-|
D|--------4--7--4----------6--9---2-------------4--7------4--7---|
A|---4--7---------7--4---7----------4--2--4---5---------5--------|
E|-5-------------------------------------------------------------|

G|--------6---------6-|
D|---6--9------6--9---|
A|-7---------7--------|
E|--------------------|

Middle 8:
G|----------------------------------------------------------|
D|---4--7--4----------------6--9--6-----------------4--7--4-|
A|-5------------4--7--4---7-------------4--7--4---5---------|
E|------------5-----------------------5---------------------|

G|--------------------------------|
D|--------------------------------|
A|---4--7--4----------------------|
E|-5-----------12---12---12---12\-|

Verse 3:
G|------------------------------6--------------------4---------4-|
D|--------4--7--4----------6--9---2-------------4--7------4--7---|
A|---4--7---------7--4---7----------4--2--4---5---------5--------|
E|-5-------------------------------------------------------------|

                                 (Break)
G|--------6---------6------------------------------------------4-|
D|---6--9------6--9------------4--------------------------4--7---|
A|-7---------7------------4--7----7------------4--7--4--7--------|
E|----------------------5--------------------5-------------------|

Instrumental: (Play Quavers)
G|---------------------------------------------------------------------|
D|---------------------------------------------------------------------|
A|-----------------------------------7-7-7-7-7-7-7-7---7-7-7-7-7-7-7-7-|
E|-5-5-5-5-5-5-5-5---5-5-5-5-5-5-5-5-----------------------------------|

G|-----------------------------------------------------------------------|
D|-----------------------------------------------------------------------|
A|-5-5-5-5-5-5-5-5---5-5-5-5-5-5-5-5---7-7-7-7-7-7-7-7---7-7-7-7-7-7-7-7-|
E|-----------------------------------------------------------------------|

Middle 8:
G|----------------------------------------------------------|
D|---4--7--4----------------6--9--6-----------------4--7--4-|
A|-5------------4--7--4---7-------------4--7--4---5---------|
E|------------5-----------------------5---------------------|

G|--------------------------------|
D|--------------------------------|
A|---4--7--4----------------------|
E|-5-----------12---12---12---12\-|

Verse 4:
G|------------------------------6--------------------4---------4-|
D|--------4--7--4----------6--9---2-------------4--7------4--7---|
A|---4--7---------7--4---7----------4--2--4---5---------5--------|
E|-5-------------------------------------------------------------|

                             (Break)             (Break)          (Break)
G|--------6---------6------------------------------------------------|
D|---6--9------6--9---------4-----------------4-----------------4----|
A|-7---------7---------4--7---7----------4--7----7---------4--7----7-|
E|-------------------5-----------------5-----------------5-----------|

Outro:                 (Repeat To Fade/End)
G|-----------------------------------|
D|-----------------------------------|
A|-----------------------------------|
E|-5-5-5-5-5-5-5-5---5-5-5-5-5-5-5-5-|



Well, who's that a-walkin' down the street
Pickin' up those dainty little feet
Who's the one that catches my eye
Everytime she passes by - gee whizz it's you

Ever since we said goodbye, all because of a little white lie,
Let me tell you why we parted, listen now to what my heart says,

Chorus
Gee whizz it's you, you're the one that's makin' me blue
Gee whizz it's you, you're the one who can't be true

Little darlin' won't you hear my plea
Won't you please come back to me,
We can pick up where we started, listen now to what my heart says,
Ummmm - gee whizz it's you..........

(Instrumental)

Chorus

Little darlin' won't you hear my plea
Won't you please come back to me,
We can pick up where we started, listen now to what my heart says,
Ummmm - gee whizz it's you..........

Gee whizz it's you

Gee whizz it's you

(Fade Out)
Suggest correction
Give kudos to tab author, rate the tab!
1 2 3 4 5
comments
print report bad tab
guest
You may want to rate the tab now too:
select rating
Wanna post a correction for this tab? Suggest correction