Oops, an error
Loading. Please wait.

I Could Easily Fall In Love With You bass

265 views 1 this week
no commentswrite comment
1 2 3 4 5
3 more votes to show rating
add to favorites
×
Save as Personal and add changes to this tab that will be seen only by you. Learn more ›
×
You can save this tab as Personal to edit and correct it or add notes. All changes will be seen only by you. Learn more »
launch autoscroll
font size
0
reset
guitar tuner
edit
Autoscroll
slow
fast
+/-
esc
set tempo
stop
Author
Difficulty
I Could Easily Fall 
Single release by Cliff Richard & The Shadows in 1964. Reached number 6 UK
Bass performance John Rostill. Tab by bass50611. This is how I played it on
Stage with my Rock n Roll band. Comments at bass254@btinternet.com 

Intro:
G|-----------------------------------------------
D|-----------------------------------------------
A|------------5--5---7--7------------5--5---7--7-
E|-5--5--5--5-------------5--5--5--5-------------

Verse 1:
G|---------------------------------------------------------------------
D|---------------------------------------------------------------------
A|------------------------5--5------5--5---7--7------------------------
E|-5--5--5--5--5--5--5--5------5--5-------------5--5--5--5--5--5--5--5-

G|---------------------------------------------------------------------
D|----------------------------------------------7--7--7--9/11--11--11--
A|-5--5--5--5--5--5--5--4------------7--7--7--7------------------------
E|------------------------7--7--7--7---------------------------------9-

G|----------------------------------------------
D|----------------------------------------------
A|------------7--7--7--7------------5--5---7--7-
E|-7--7--7--7------------5--5--5--5-------------

Verse 2:
G|---------------------------------------------------------------------
D|---------------------------------------------------------------------
A|------------------------5--5------5--5---7--7------------------------
E|-5--5--5--5--5--5--5--5------5--5-------------5--5--5--5--5--5--5--5-

G|---------------------------------------------------------------------
D|----------------------------------------------7--7--7--9/11--11--11--
A|-5--5--5--5--5--5--5--4------------7--7--7--7------------------------
E|------------------------7--7--7--7---------------------------------9-

G|---------------------------------------
D|-----------------------7----4---7----4-
A|------------7--7--7--7--4--7-----4--7--
E|-7--7--7--7----------------------------

Bridge 1:
G|------------------------------------------------------------
D|------------------------------------------------------------
A|-7--7--7--7-------------7--7--7--7---7--7--7--7--7--7--7--7-
E|------------7--7--7--7--------------------------7-----------

G|------------------------------------
D|----------------------------------6-
A|-------------7--7--7--7---7--7--9---
E|-7--7--7--7-------------------------

G|-------------------------------------------------------------------------
D|-7--7--7--7------------7--7--7--7---7--7--7--7-------12---12-------------
A|------------7--7--7--7-------------------------9---9---------------7---7-
E|-------------------------------------------------------------7---7-------

Repeat Verse 2:

Bridge 2:
G|------------------------------------------------------------
D|------------------------------------------------------------
A|-7--7--7--7-------------7--7--7--7---7--7--7--7--7--7--7--7-
E|------------7--7--7--7--------------------------7-----------

G|-----------------------------------
D|-----------------------------------
A|------------7--7--7--7---7--5--4---
E|-7--7--7--7----------------------7-

G|-------------------------------------------------------------------------
D|-7--7--7--7------------7--7--7--7---7--7--7--7-------12---12-------------
A|------------7--7--7--7-------------------------9---9---------------7---7-
E|-------------------------------------------------------------7---7-------

Repeat Verse 1:

Outro:                         (Repeat To Fade/End)
G|-----------------------------------------------
D|-----------------------------------------------
A|------------5--5---7--7------------5--5---7--7-
E|-5--5--5--5-------------5--5--5--5-------------


            
            
Suggest correction
Creating personal tab
Creating personal tab
You can edit any tab online and save it as your Personal.

You can edit, replace or remove any tab part or add personal notes – all changes will be seen only by you.

Personal tabs can be accessed anytime from any device, even offline.
Learn more »
Give kudos to tab author, rate the tab!
1 2 3 4 5
comments
print report bad tab
guest
You may want to rate the tab now too:
select rating
Wanna post a correction for this tab? Suggest correction