Oops, an error
Loading. Please wait.

Move It bass

version 1
version 1

Whole song

Interactive

139 views 15 this week
no commentswrite comment
1 2 3 4 5
3 more votes to show rating
add to favorites
×
Save as Personal and add changes to this tab that will be seen only by you. Learn more ›
×
You can save this tab as Personal to edit and correct it or add notes. All changes will be seen only by you. Learn more »
launch autoscroll
font size
0
reset
guitar tuner
edit
Autoscroll
slow
fast
+/-
esc
set tempo
stop
Author
Move It
This is how it all started for Cliff Richard and The Shadows, their first
Single in 1958.  Reached number 2 UK Charts. Bass performance Jet Harris
Tab by bass50611. When I was in a Rock n Roll band this is what I played.
A very simple Walking Bass Line using the original as a guide.

Intro:
G|--------------|--------------------------|
D|-GUITAR START-|--------------------------|
A|--------------|------2--4---------2--4---|
E|--------------|-0--4--------0--2---------|

Verse 1:                                (Play This Bit x4)
G|-----------------------------------------------|
D|-----------------------------------------------|
A|------2--4--------2--4--------2--4--------2--4-|
E|-0--4--------0--4--------0--4--------0--4------|

G|------------------------------------------------------------------|
D|--------4----------4----------4----------4---2--------------------|
A|---4--7-------4--7-------4--7-------4--7-------4--2----------2--4-|
E|-5----------5----------5----------5-----------------4---0--4------|

G|--------------------------------------------------------|
D|--------------------------------6----------6----------4-|
A|------2--4--------2--4-----6--9-------6--9-------4--7---|
E|-0--4--------0--4--------7----------7----------5--------|

G|----------------------------------------------------------|
D|--------4-------------------------------------------------|
A|---4--7----------2--4--------2--4--------2--4--------2--4-|
E|-5----------0--4--------0--4--------0--4--------0--4------|

Interlude:
G|--------6----------6--------------------------------6----------6-|
D|---6--9-------6--9------------4----------4-----6--9-------6--9---|
A|-7----------7------------4--7-------4--7-----7----------7--------|
E|-----------------------5----------5------------------------------|

G|----------------------------------------------------6----------6-|
D|--------6----------6----------4----------4-----6--9-------6--9---|
A|---6--9-------6--9-------4--7-------4--7-----7----------7--------|
E|-7----------7----------5----------5------------------------------|

                          (Break)
G|--------6----------6----------------------------------------|
D|---6--9-------6--9------------------------------------------|
A|-7----------7----------7-------------------2--4--------2--4-|
E|--------------------------------------0--4--------0--4------|

Verse 2:                                (Play This Bit x3)
G|-----------------------------------------------|
D|-----------------------------------------------|
A|------2--4--------2--4--------2--4--------2--4-|
E|-0--4--------0--4--------0--4--------0--4------|

      (Break)
G|-------------------------------------|
D|----------------------------2--------|
A|-----------------------2--4---4--2---|
E|---0--------------0--4-------------4-|

G|------------------------------------------------------------------|
D|--------4----------4----------4----------4---2--------------------|
A|---4--7-------4--7-------4--7-------4--7-------4--2----------2--4-|
E|-5----------5----------5----------5-----------------4---0--4------|

G|--------------------------------------------------------|
D|--------------------------------6----------6----------4-|
A|------2--4--------2--4-----6--9-------6--9-------4--7---|
E|-0--4--------0--4--------7----------7----------5--------|

G|----------------------------------------------------|
D|--------4-------------2--------------------2--------|
A|---4--7----------2--4---4--2----------2--4---4--2---|
E|-5----------0--4-------------4---0--4-------------4-|

Outro:                                            (Repeat To Fade)
G|-----------------------------------------------------------|
D|-----------2--------------------2-----------------2--------|
A|------2--4---4--2----------2--4---4--2-------2--4---4--2---|
E|-0--4-------------4---0--4-------------4---0-------------4-|




            
            
Suggest correction
Creating personal tab
Creating personal tab
You can edit any tab online and save it as your Personal.

You can edit, replace or remove any tab part or add personal notes – all changes will be seen only by you.

Personal tabs can be accessed anytime from any device, even offline.
Learn more »
Give kudos to tab author, rate the tab!
1 2 3 4 5
comments
print report bad tab
guest
You may want to rate the tab now too:
select rating
Wanna post a correction for this tab? Suggest correction