Oops, an error
Loading. Please wait.

Rote Lippen Soll Man Kuessen Bass Tab

1,174 views 1 this week
no commentswrite comment
1 2 3 4 5
3 more votes to show rating
add to favorites
launch autoscroll
font size
0
reset
guitar tuner
Autoscroll
slow
fast
+/-
esc
set tempo
stop
Help us to improve Ultimate-Guitar.com Take our survey!
×
Cliff Richard & The Shadows - Rote Lippen Soll Man Küssen

Intro: 2x
G|-------------------------|
D|-------------------------|
A|-----2-4-2--0-4-2-0------|
E|-0-4------4---------4-2--|

Verse:
G|-----------------------------------------------|
D|---------------4-6-4-------4-6-4---------------|
A|-----2-4-2---6-------6---6-------6-----2-4-2---|
E|-0-4------4-7----------7-----------0-4------4--|

-------------------------------------4---------------|
----------------2-4-2---------------4----------------|
-----2-4-2--0-4------4-22---22-----2----22222222222--|
-0-4------4--------------22----22--------------------|

Chorus:
G|------------------------------------------------------------|
D|---------------46----46---46----46--------------------------|
A|---24----24---6-----6----6-----6------24----24----24----24--|
E|-04----04----7-----7----7-----7-----04----04----04----04----|

-------------------------4----------------|
----24----24------------4-----------------|
--04----04----22--22---2-----22222222222--|
----------------22--22--------------------|

Outro:
---------------------------------------|
---------------------------24-2--------|
--22-00---------24----24-04----4-2-----|
--------44-22-04----04------------4-0--|
Suggest correction
Give kudos to tab author, rate the tab!
1 2 3 4 5
comments
print report bad tab
guest
You may want to rate the tab now too:
select rating
Wanna post a correction for this tab? Suggest correction