Oops, an error
Loading. Please wait.

The Young Ones Bass Tab

version 1
version 1

Whole song

Interactive

55 views 21 this week
no commentswrite comment
1 2 3 4 5
3 more votes to show rating
add to favorites
launch autoscroll
font size
0
reset
guitar tuner
Autoscroll
slow
fast
+/-
esc
set tempo
stop
Help us to improve Ultimate-Guitar.com Take our survey!
×
Author
The Young Ones
A top selling single from 1962 by Cliff Richard & The Shadows.
Bass performance Jet Harris. Tab by bass50611. Welcome to my tab 
Of this sixties classic.  Not exact as Jet Harris’s bass line but it
Does fit and a nice easy song to play.  Symbol ‘.’ Indicate pauses

Intro: (2 x Bass Chords To Start)
     ‘.’
G|------|----------------------------------------------------------------|
D|-5--5-|----------------------------------------------------------------|
A|------|----------------------5-6-7--7-----7--7---7--------7--------7---|
E|-3--3-|------3--3-3---3--3-3----------7--------7-----5--5-----5--5---5-|

G|---------------------|
D|---------------------|
A|-5--5-----5--3--2----|
E|------5------------5-|

Verse 1:                                                              ‘.’
G|-----------------------------------------------------------------------|
D|----------5--5-5-4-2--2-2---2--2-2-4-5--5-5---5--5-5-4-2--2-2---2--2-2-|
A|--------------------------2-----------------5-----------------2--------|
E|-3--3-3----------------------------------------------------------------|

G|-----------------------------------------------------------|
D|-5-5--5-----------5--5-5-----------------------------------|
A|----------5-5--5----------3--3-3-----------5--5-5----------|
E|-----------------------------------3--3-3-----------3--3-3-|

Solo 1:
G|-------------------|
D|-------------------|
A|-3-3-3-3---5-5-5-5-|
E|-------------------|

Verse 2:                                                              ‘.’
G|-----------------------------------------------------------------------|
D|----------5--5-5-4-2--2-2---2--2-2-4-5--5-5---5--5-5-4-2--2-2---2--2-2-|
A|--------------------------2-----------------5-----------------2--------|
E|-3--3-3----------------------------------------------------------------|

G|------------------------------------------------------------------------|
D|-5-5--5-----------5--5-5------------------------------------------------|
A|----------5-5--5----------3--3-3-----------5--5-5-----------------------|
E|-----------------------------------3--3-3-----------3--3-3---3--3--3--3-|

Bridge:
  ‘.’               ‘.’                              ‘.’
G|---------------------------------------------------------------------|
D|-----------------------5--5-5--5-------------------------------------|
A|-3----3--3-3--3-------------------------------------5------5--3--2---|
E|-------------------3--------------5--5-5---5--5-5------------------5-|

Verse 3:                                                              ‘.’
G|-----------------------------------------------------------------------|
D|----------5--5-5-4-2--2-2---2--2-2-4-5--5-5---5--5-5-4-2--2-2---2--2-2-|
A|--------------------------2-----------------5-----------------2--------|
E|-3--3-3----------------------------------------------------------------|

                                                             (Bass Chord)
G|------------------------------------------------------------------------|
D|-5-5--5-----------5--5-5-------------------------------------5--5-------|
A|----------5-5--5----------3--3-3-----------5--5-5-----------------------|
E|-----------------------------------3--3-3-----------3--3-3---3--3-------|

Instrumental: 
G|------------------------------------------------------------------------|
D|------5-5-----5-5---2--2-----2--2--------------------------------3-2-0--|
A|------------------------2-2------2-1-----7-7---5-3-2---------5-5------2-|
E|-3--3----3--3------------------------5--5------------5---3--3-----------|

Bridge:
  ‘.’               ‘.’                              ‘.’
G|---------------------------------------------------------------------|
D|-----------------------5--5-5--5-------------------------------------|
A|-3----3--3-3--3-------------------------------------5------5--3--2---|
E|-------------------3--------------5--5-5---5--5-5------------------5-|

Verse 2:                                                              ‘.’
G|-----------------------------------------------------------------------|
D|----------5--5-5-4-2--2-2---2--2-2-4-5--5-5---5--5-5-4-2--2-2---2--2-2-|
A|--------------------------2-----------------5-----------------2--------|
E|-3--3-3----------------------------------------------------------------|

G|-----------------------------------------------------------|
D|-5-5--5-----------5--5-5-----------------------------------|
A|----------5-5--5----------3--3-3-----------5--5-5----------|
E|-----------------------------------3--3-3-----------3--3-3-|

Outro:                                                         (Bass Chord)
G|------------------------------------------------------------------------|
D|----------------------2-5----------------------------------2-5----5-----|
A|---------3--3-3---3--3------------------2-5---3--3-3---3--3-------------|
E|-3--3-3--------------------3--3-3---3--3--------------------------3-----|

Symbol ‘.’ Indicate Pauses.



The young ones,
Darling we're the young ones,
And young ones shouldn't be afraid.

To live, love
While the flame is strong,
for we won't be the young ones very long.

Tomorrow,
why wait till tomorrow,
Tomorrow sometimes never comes.
Love, me,
there's a song to be sung
And the best time is to sing while we're young.

Once in every lifetime
comes a love like this.
I need you and you need me.
Oh my darling can't you see.
Young dreams
Should be dreamed together,
Young hearts shouldn't be afraid.
And some day when the years have flown
Darling, this will teach the young ones of our own.
The young ones
Darling, we're the young ones
The young ones
Darling, we're the young ones.
Suggest correction
Give kudos to tab author, rate the tab!
1 2 3 4 5
comments
print report bad tab
guest
You may want to rate the tab now too:
select rating
Wanna post a correction for this tab? Suggest correction