Oops, an error
Loading. Please wait.

Parisian Thoroughfare tab

49 views 1 this week
no commentswrite comment
1 2 3 4 5
3 more votes to show rating
add to favorites
×
Save as Personal and add changes to this tab that will be seen only by you. Learn more ›
×
You can save this tab as Personal to edit and correct it or add notes. All changes will be seen only by you. Learn more »
launch autoscroll
font size
0
reset
how to read this tab
guitar tuner
edit
Autoscroll
slow
fast
+/-
esc
set tempo
stop
[A]

 |----1st time only-------|
 |                        |Fmaj7             Gm7                C7           Am7         D7
e|------------------------|------------------------|------------------------|------------------------|
B|----------------------5-|6-5---------------------|------------------------|------------------------|
G|------------------5-7---|----7-5-----------7-----|------5--7--5-----------|------------------------|
D|------------------------|--------8-7-5-----------|--------------8-7-5-----|------------------------|
A|------------------------|------------------------|--------------------8-7-|5-----------------------|
E|------------------------|------------------------|------------------------|------------------------|
  1 e a 2 e a 3 e a 4 e a  1 e a 2 e a 3 e a 4 e a  1 e a 2  +  3 e a 4 e a  1 e a 2 e a 3 e a 4 e a  


  Gm7         C7           Fmaj7             Gm7                C7           Fmaj7
e|------------------------|------------------------|------------------------|------------------------|
B|----------------------5-|6-5---------------------|------------------------|------------------------|
G|------------------5-7---|----7-5-----------7-----|------5--7--5-----------|------------------------|
D|------------5-7-8-------|--------8-7-5-----------|--------------8-7-5-----|------------------------|
A|------5-7-8-------------|------------------------|--------------------8-7-|8-----------------------|
E|---8--------------------|------------------------|------------------------|------------------------|
  1  +  2 e a 3 e a 4 e a  1 e a 2 e a 3 e a 4 e a  1 e a 2  +  3 e a 4 e a  1 e a 2 e a 3 e a 4 e a


 |-----1st Ending---------||------2nd Ending--------||
 |Gm7         C7          ||Bm7         E7          ||
e|------------------------||------------------------||
B|----------------------5-||------------------------||
G|------------------5-7---||------------------------||
D|------------------------||------------------------||
A|------------------------||------------------------||
E|------------------------||------------------------||
  1 e a 2 e a 3 e a 4 e a   1 e a 2 e a 3 e a 4 e a


[B]

  Amaj7                    Bm7         E7           Amaj7                    Am7         D7 
e|------------------------|------------------------|------------------------|------------------------|
B|------------------------|---------5--------------|------------------------|------------------------|
G|------------------4--6--|7--5--6-----------7-6-4-|6-----4-----4-----------|------------------------|
D|---------4--6--7--------|------------------------|--------7-6----7--------|5-----5-----------------|
A|------7-----------------|------------------------|------------------7--5--|---7-----7--------------|
E|------------------------|------------------------|------------------------|------------------------|
  1  +  2  +  3  +  4  +   1  +  2  +  3  +  4 e a  1  +  2 e a 3  +  4  +   1  +  2  +  3  +  4  +


  Gmaj7                    Dm7         G7           Gm7                      C7(b5)
e|------------------------|---------3--------------|------------------------|------------------------|
B|---------------------5--|6--4--5-----------6-5---|5-----------------------|----------------------5-|
G|------------4--5--7-----|----------------------7-|--------------5---------|5-----------------5-7---|
D|------5--7--------------|------------------------|---5--7--8------8-7--5--|---4--------------------|
A|------------------------|------------------------|------------------------|------------------------|
E|------------------------|------------------------|------------------------|------------------------|
  1  +  2  +  3  +  4  +   1  +  2  +  3  +  4 e a  1  +  2  +  3 e a 4  +   1  +  2  +  3  +  4 e a  



******************************************************
"Parisian Thoroughfare"
Written by Bud Powell
Album: Clifford Brown & Max Roach
Year: 1954
Tuning: Standard (No Capo)
Time: 4/4 
Beats counted "1-e-a-" represent eighth note triplets.
Beats counted "1--+--" represent swung eighth notes.
Form: 

Opening Head: {[A 1st Ending][A 2nd Ending][B][A 1st Ending]} (x1)
Solo Section: {[A 1st Ending][A 2nd Ending][B][A 1st Ending]} (repeat as desired, improv over chords)
Closing Head: {[A 1st Ending][A 2nd Ending][B][A 1st Ending]} (x1)

End
******************************************************

            
            
Suggest correction
Creating personal tab
Creating personal tab
You can edit any tab online and save it as your Personal.

You can edit, replace or remove any tab part or add personal notes – all changes will be seen only by you.

Personal tabs can be accessed anytime from any device, even offline.
Learn more »
Give kudos to tab author, rate the tab!
1 2 3 4 5
comments
print report bad tab
guest
You may want to rate the tab now too:
select rating
Wanna post a correction for this tab? Suggest correction