Oops, an error
Loading. Please wait.

Spoonful Tab

2,550 views 6 this week
no commentswrite comment
1 2 3 4 5
please rate
add to favorites
launch autoscroll
font size
0
reset
how to read this tab
guitar tuner
Autoscroll
slow
fast
+/-
esc
set tempo
stop
Help us to improve Ultimate-Guitar.com Take our survey!
×
Author
Song: Spoonful
Artist: Climax Blues Band
Tuning: Standard

Main Riff
e-----------------------------------|
b----------------8~-----------------|
g----5-----------8~-----------------|
d----------5h8p5-----10-10h8------8-|
a------6h8-------------------8h10---|
E--8--------------------------------|
just keep playin this til it gets to these words...

Good enough for me...
e------------------------|
b------------------------|
g------------8-----------|
d-------8-----------8----|
a--8h10---10---8h10---10-|
E------------------------|

And that's all there is to this song.
Suggest correction
Give kudos to tab author, rate the tab!
1 2 3 4 5
comments
print report bad tab
guest
You may want to rate the tab now too:
select rating
Wanna post a correction for this tab? Suggest correction