Oops, an error
Loading. Please wait.

No Time To Kill bass

16 views 1 this week
no commentswrite comment
1 2 3 4 5
3 more votes to show rating
add to favorites
×
Save as Personal and add changes to this tab that will be seen only by you. Learn more ›
×
You can save this tab as Personal to edit and correct it or add notes. All changes will be seen only by you. Learn more »
launch autoscroll
font size
0
reset
guitar tuner
edit
Autoscroll
slow
fast
+/-
esc
set tempo
stop
#----------------------------------PLEASE NOTE---------------------------------#
#This file is the author's own work and represents their interpretation of the #
#song. You may only use this file for private study, scholarship, or research. #
#------------------------------------------------------------------------------##

                          NO TIME TO KILL
                           As recorded by CLINT BLACK
                           
Level: Novice

Words by CLINT BLACK
Gtr I (E A D G) - 'BASS'
Tempo 4/4 PRESTO 184 BPM

  Gtr I

[INTRO]
    Wx1    Q  Q  Q  Q    Q  Q  Q  Q    Q  Q  Q  Q    Q  Q  Q  Q
G|-------|-------------|-------------|-------------|---------------|
D|-------|-3-----3-----|-3-----3-----|-3-----3-----|-3-----3-------|
A|-------|----3-----3--|----3-----3--|----3-----3--|----3-----3----|
E|-------|-------------|-------------|-------------|---------------|

[VERSE]
    Q  Q  Q  Q    Q  Q  Q  Q    Q  Q  Q  Q
G|--------------|-------------|-------------|
D|--3-----3-----|-3-----3-----|-3-----3-----|
A|-----3-----3--|----3-----3--|----3-----3--|
E|--------------|-------------|-------------|

   Q  Q  Q  Q    Q  Q  Q  Q    Q  Q  Q  Q
G|-------------|-3------3----|-3-----3------|
D|-3-----3-----|----3-----3--|----3-----3---|
A|----3-----3--|-------------|--------------|
E|-------------|-------------|--------------|

   Q  Q  Q  Q    Q  Q  Q  Q    Q  Q  Q  Q
G|-------------|-------------|-------------|
D|-3-----3-----|-3-----3-----|-------------|
A|----3-----3--|----3-----3--|-4-----4-----|
E|-------------|-------------|----4-----4--|

   Q  Q  Q  Q     Q  Q  Q  Q     Q  Q  Q  Q
G|--------------|-------------|-------------|
D|--------------|--3-----3----|--3-----3----|
A|-3-----3------|-----3-----3-|-----3-----3-|  x2
E|----3-----3---|-------------|-------------|

[CHORUS]
   Q   Q  Q   Q   Q  Q   Q  Q    Q  Q  Q  Q     Q   Q   Q   Q
G|-3------3-----|-3------3-----|-3-----3------|-3-------3------|
D|-----3------3-|----3------3--|----3-----3---|-----3-------3--|
A|--------------|--------------|--------------|----------------|
E|--------------|--------------|--------------|----------------|

     Q   Q   Q   Q      Q   Q   Q   Q      Q   Q   Q   Q
G|------------------|------------------|--------------------|
D|---3-------3------|---3-------3------|---3-------3--------|
A|-------3-------3--|-------3-------3--|-------3-------3----|
E|------------------|------------------|--------------------|

   Q  Q  Q  Q    Q  Q  Q  Q    Q  Q  Q  Q    Q   Q   Q   Q    Q  Q  Q  Q
G|-------------|-------------|-------------|----------------|--------------|
D|-3-----3-----|-------------|-------------|-3-------3------|-3-----3------|
A|----3-----3--|-4-----4-----|-3-----3-----|-----3-------3--|----3-----3---|
E|-------------|----4-----4--|----3-----3--|----------------|--------------|

[VERSE]
   Q  Q  Q  Q    Q  Q  Q  Q    Q  Q  Q  Q
G|-------------|-------------|-------------|
D|-3-----3-----|-3-----3-----|-3-----3-----|
A|----3-----3--|----3-----3--|----3-----3--|
E|-------------|-------------|-------------|

   Q  Q  Q  Q    Q  Q  Q  Q    Q  Q  Q  Q
G|-------------|-3------3----|-3-----3------|
D|-3-----3-----|----3-----3--|----3-----3---|
A|----3-----3--|-------------|--------------|
E|-------------|-------------|--------------|

   Q  Q  Q  Q    Q  Q  Q  Q    Q  Q  Q  Q
G|-------------|-------------|-------------|
D|-3-----3-----|-3-----3-----|-------------|
A|----3-----3--|----3-----3--|-4-----4-----|
E|-------------|-------------|----4-----4--|

   Q  Q  Q  Q     Q  Q  Q  Q     Q  Q  Q  Q
G|--------------|-------------|-------------|
D|--------------|--3-----3----|--3-----3----|
A|-3-----3------|-----3-----3-|-----3-----3-| 
E|----3-----3---|-------------|-------------|

[CHORUS]
   Q   Q  Q   Q   Q  Q   Q  Q    Q  Q  Q  Q     Q   Q   Q   Q
G|-3------3-----|-3------3-----|-3-----3------|-3-------3------|
D|-----3------3-|----3------3--|----3-----3---|-----3-------3--|
A|--------------|--------------|--------------|----------------|
E|--------------|--------------|--------------|----------------|

     Q   Q   Q   Q      Q   Q   Q   Q      Q   Q   Q   Q
G|------------------|------------------|--------------------|
D|---3-------3------|---3-------3------|---3-------3--------|
A|-------3-------3--|-------3-------3--|-------3-------3----|
E|------------------|------------------|--------------------|

   Q  Q  Q  Q    Q  Q  Q  Q    Q  Q  Q  Q    Q   Q   Q   Q    Q  Q  Q  Q
G|-------------|-------------|-------------|----------------|--------------|
D|-3-----3-----|-------------|-------------|-3-------3------|-3-----3------|
A|----3-----3--|-4-----4-----|-3-----3-----|-----3-------3--|----3-----3---|
E|-------------|----4-----4--|----3-----3--|----------------|--------------|

[OUTRO]
   Q  Q  Q  Q    Q  Q  Q  Q    Q  Q  Q  Q    Q  Q  Q  Q
G|-------------|-------------|-------------|--------------|
D|-3-----3-----|-3-----3-----|-3-----3-----|-3-----3------|
A|----3-----3--|----3-----3--|----3-----3--|----3-----3---|
E|-------------|-------------|-------------|--------------|

     Q   Q   Q   Q    Q   Q   Q   Q    Q   Q   Q   Q
G|------------------|----------------|------------------|
D|---3-------3------|-3-------3------|-3-------3--------|
A|-------3-------3--|-----3-------3--|-----3-------3----|
E|------------------|----------------|------------------|

   Q  Q  Q  Q    Q  Q  Q  Q    Q  Q  Q  Q    Q  Q  Q  Q
G|-------------|-------------|-------------|-------------|
D|-3-----3-----|-3-----3-----|-3-----3-----|-3-----3-----|
A|----3-----3--|----3-----3--|----3-----3--|----3-----3--|
E|-------------|-------------|-------------|-------------|

   Q  Q  Q  Q    Q  Q  Q  Q    Q  Q  Q  Q      Q  Q  Q  Q
G|-------------|-------------|---------------|---------------|
D|-3-----3-----|-3-----3-----|-3-----3-------|-3-----3-------|
A|----3-----3--|----3-----3--|----3-----3----|----3-----3----|
E|-------------|-------------|---------------|---------------|

   Q  Q  Q  E  Q  E     Q  Q  Q  Q       Whl
G|-------------------|--------------|---------||
D|----3--------------|--------------|----3----||
A|-3-----4-----4-----|--3-----3-----|---------||
E|----------4-----4--|-----3-----3--|---------||

[END]

********************************

| W - whole; H - half; E - 8th; S - 16th; T - 32nd; X - 64th; a - acciaccatura
| + - note tied to previous; . - note dotted; .. - note double dotted
| Uncapitalized letters represent notes that are staccato (1/2 duration)
| Irregular groupings are notated above the duration line
| Duration letters will always appear directly above the note/fret number it represents the
| duration for.  Duration letters with no fret number below them represent rests.  Multi-
| bar rests are notated in the form Wxn, where n is the number of bars to rest for; Whl - Whole Hold; Low
| melody durations appear below the staff

***********************************

            
            
Suggest correction
Creating personal tab
Creating personal tab
You can edit any tab online and save it as your Personal.

You can edit, replace or remove any tab part or add personal notes – all changes will be seen only by you.

Personal tabs can be accessed anytime from any device, even offline.
Learn more »
Give kudos to tab author, rate the tab!
1 2 3 4 5
comments
print report bad tab
guest
You may want to rate the tab now too:
select rating
Wanna post a correction for this tab? Suggest correction