Oops, an error
Loading. Please wait.

Reindeer Age Tab

1,171 views 6 this week
3 commentsread comments
1 2 3 4 5
excellent!
x 2
add to favorites
launch autoscroll
font size
0
reset
how to read this tab
guitar tuner
Tab Pro tools
  • play this tab
  • loop segment
  • change instrument
  • show fretboard
  • metronome
Autoscroll
slow
fast
+/-
esc
set tempo
stop
Contributor
Difficulty
intermediate
Artist: Closure In Moscow
Song: Reindeer Age (Intro)
Album: First Temple
Tabbed by: Tanjamin

Figured this out by ear, but I think this is close to what is played.

Tuning: Standard

Clean intro x2

e|-------------------------------------------|
B|-------------------------9-----------------|
G|-10-10-8-10-10---10---10---10-8-10-8-------|
D|---------------8----8----------------11-10-|
A|-------------------------------------------|
E|-------------------------------------------|

e|-------------------------------------------|
B|-------------------------------------------|
G|-------------------------------------------|
D|-10-10-10-11-10-8-------8-8-8-10-8---------|
A|------------------11-11------------11-8~---|
E|-------------------------------------------|

e|-------------------------------------------|
B|-------------------------9-----------------|
G|-10-10-8-10-10-8-10-8-10---10-8-10-8-------|
D|-------------------------------------11-10-|
A|-------------------------------------------|
E|-------------------------------------------|

e|-------------------------------------------|
B|-------------------------------------------|
G|-------------------------------------------|
D|-10-10-10-11-10-8-------8-8-10b~--8~---8-8-|
A|------------------11-11--------------------|
E|-------------------------------------------|



Heavy: 
e|----------------------------------------------|
B|----------------------------------------------|
G|----------------------------------------------|
D|-10-10-10-10h11p10----------8-8-8-8h10p8------|
A|-------------------13-11-----------------11-8-|
E|----------------------------------------------|

e|----------------------------------------|
B|----------------------------------------|
G|-8-8-8-8h10p8---------8-8-8-8h10p8------|
D|--------------11-8-----------------11-8-|
A|----------------------------------------|
E|----------------------------------------|

e|---------------------------------------------------|
B|---------------------------------------------------|
G|-10-10-10-10h13p10---------10-10-10-10h13p10-------|
D|-------------------13-11---------------------13-11-|
A|---------------------------------------------------|
E|---------------------------------------------------|

e|----------------------------------------------|
B|----------------------------------------------|
G|----------------------------------------------|
D|-10-10-10-10h11p10----------8-8-8-8h10p8------|
A|-------------------13-11-----------------11-8-|
E|----------------------------------------------|

e|----------------------------------------------------|
B|----------------------------------------------------|
G|----------------------------------------------------|
D|-10-10-10-10h11p10----------11-11-11-11h13p11-------|
A|-------------------13-11----------------------15-13-|
E|----------------------------------------------------|


e|-------------------------------------------|
B|-------------------------------------------|
G|-8-8-8-8h10p8---------10-10-10h13p10-------|
D|--------------11-10------------------13-11-|
A|-------------------------------------------|
E|-------------------------------------------|

e|---------------------------------------|
B|------------------------------------9--|
G|-8-8-8-8h10p8---------10-10-10-8-10----|
D|--------------11-8---------------------|
A|---------------------------------------|
E|---------------------------------------|

e|-----------------------------------------|
B|---------9---------9---------9---------9-|
G|-10-8-10---10-8-10---10-8-10---10-8-10---|
D|-----------------------------------------|
A|-----------------------------------------|
E|-----------------------------------------|

Then onto the verse.

Hope this helps.

************************************

| /   slide up
| \   slide down
| h   hammer-on
| p   pull-off
| ~   vibrato
| +   harmonic
| x   Mute note
| b   Bend
| pb  Pre-bend
| br  Bend release
| pbr Pre-bend release
| brb Bend release bend

************************************
comments
We did not receive enough feedback on this tab! Please rate:
print report bad tab
1 2 3 4 5
3 comments total.
0 reply
Night_Lights wrote on April 12 2014, 07:47 pm

song is in drop C but the notes are right!

0 reply
kylebrogly wrote on August 31 2014, 01:03 pm

This is very minuscule, but for that very first part, the second and third "8" should be on the D string.

0 reply
Tanjamin wrote on September 2 2014, 06:07 pm

Good spot, I've updated the tab, thanks!

I want to post or [tab]
guest
You may want to rate the tab now too:
select rating
Please do not post tabs as comments. Select "correction" instead!