Oops, an error
Loading. Please wait.

Chemicals Collide Tab

11,847 views 3 this week
1 commentread comment
1 2 3 4 5
accurate
x 7
add to favorites
launch autoscroll
font size
0
reset
how to read this tab
guitar tuner
Autoscroll
slow
fast
+/-
esc
set tempo
stop
Help us to improve Ultimate-Guitar.com Take our survey!
×
Author
Difficulty
intermediate
Chemicals Collide
                   by Cloud Cult

I tabbed this on a whim, so it may be a bit sketchy.
It should be good unless I decided to put a wrong chord somewhere...
And if you decide to tab out the solo/interlude whatever I'll shove it right in to make 
supreme tab.


**Most of the song is fingerpicked in some pattern that I didn't bother to tab out (or 
out, for that matter). Just hit the root first and pick random strings from there and it 
like you know what you're doing.


Intro:

--------------    -------------|
--7--7--7--7--    --8--8--8--8-|          \
--------------x2  -------------|x2         \  play this twice
7--7--7--7----    9--9--9--9---|           /
--------------    -------------|          /
--------------    -------------|


D                      G
I was out paying close attention
                        D
Or was I lost inside my thoughts
				    G                   Dadd9
These days it's hard to tell what's outside from what's in my mind


G		 D
And oh god, it's beautiful
  A
Insatiable
    G		 Dadd9
The way our chemicals collide

--------------    -------------|
--7--7--7--7--    --8--8--8--8-|          \
--------------x2  -------------|x2         \  play this twice
7--7--7--7----    9--9--9--9---|           /
--------------    -------------|          /
--------------    -------------|


D			   G
I was out catching up to tomorrow
			  D
Or was I caught up in the past
                                    G                 Dadd9
These days it's hard to tell what's out in front from what's behind


G                     D
And oh god, it's unforgettable
     A
Unpredictable
    G            Dadd9
The way our chemicals collide


"solo" (but I got lazy to finish it... here's how it starts.)

------10-|
---------|
--9-7----|x8
---------|
---------|
---------|

e-14-14-1414-14-14-1412--12-10-1010-10-10-1012--14-14-1414-14-14-1414-15--17-17-1717

after that ends, strum D chords (let them ring):

\ / \
D D D  x 2


--------------    -------------|
--7--7--7--7--    --8--8--8--8-|          \
--------------x2  -------------|x2         \  play this twice
7--7--7--7----    9--9--9--9---|           /
--------------    -------------|          /
--------------    -------------|


D                     G
I was sleeping in the lilies
                D
Or was I up all night
				    G                Dadd9
These days it's hard to tell what's half asleep from fully alive
D                     G
We were loving like a landslide
		D
Or were we in a fight
				    G                    Dadd9
These days it's hard to tell what's right from wrong and wrong from right


G                D
And oh god, it's beautiful
  A
Insatiable
    G            Dadd9
The way our chemicals collide
G                     D
And oh god, it's unforgettable
     A
Unpredictable
    G            Dadd9
The way our chemicals collide


"Outro":

-----
---7- repeat till end.
-----
-7---
-----
-----
Suggest correction
comments
print report bad tab
1 comment total.
0 reply
fenderarmy 88 wrote on December 31 2009, 12:01 am

Is this in Drop D? I haven't tried learning it yet, but I know both Transistor Radio and Car Crash are in Drop D, and there appears to be lotsa D in here. Just curious!

guest
You may want to rate the tab now too:
select rating
Please do not post tabs as comments. Select "correction" instead!