Oops, an error
Loading. Please wait.

Daniel Days Bass Tab

148 views 1 this week
no commentswrite comment
1 2 3 4 5
please rate
add to favorites
launch autoscroll
font size
0
reset
guitar tuner
Autoscroll
slow
fast
+/-
esc
set tempo
stop
Help us to improve Ultimate-Guitar.com Take our survey!
×
Author
-------------------------------------------------------------------------------
			     Daniel Days - Cloud Cult
                         (Lost Songs from the Lost Years)
-------------------------------------------------------------------------------

Tabbed By : Jojo
e-mail: alfano3@illinois.edu

Tuning: Standard
Another oldie from Cloud Cult with just a great bass groove. Enjoy.

| /  slide up
| \  slide down
| h  hammer-on
| p  pull-off
| ~  vibrato
| +  harmonic
| x  Mute note

Intro:
G|---------------------------------------------------------------------------|
D|-10--9--7---------7/12-------------7---10--9--7----------7/12--------------|
A|----------10-8-10--------8----8-10---------------10-8-10-------------------|
E|---------------------------10----------------------------------------------|

0:20
G|---------------------------------------------------------------------------|
D|-10-10-10-10-10-10\-------------7-7-7-7-7-7/12-12-12-12-12-12---------------|
A|-------------------8-8-8-8-8-8/---------------------------------------------|
E|---------------------------------------------------------------------------|
Repeat 2x

0:37
G|---------------------------------------------------------------------------|
D|-10-10-10-10-10-10-12--10-10-10-10-10-10-----------------------------------|
A|-----------------------------------------8\--------------------------------|
E|---------------------------------------------------------------------------|
Repeat 2x

0:52
G|------------------------|
D|-10--9--7---------7/12--|
A|----------10-8-10-------|
E|------------------------|
Repeat 8x

1:50
G|---------------------------------------------------------------------------|
D|-12-12-10-10-10-12----------8-8-8-8----------------------------------------|
A|----------------------8-10----------10-10-10-10-10-10-10-10----------------|
E|-------------------10------------------------------------------------------|

G|---------------------------------------------------------------------------|
D|-12-12-10-10-10-12---------8-8-8-8-10-10-10-10-10-10-10-10-----------------|
A|----------------------8-10-------------------------------------------------|
E|-------------------10------------------------------------------------------|

G|-----------------------------------------------------------------------12--|
D|-12-10-12-10-12--15-14-15-14-12-12-14-12--12-10-8-7-10-8-7-8-7-------------|
A|---------------------------------------------------------------10-8-7------|
E|----------------------------------------------------------------------(10)-|
Repeat Segment 3x On last time play the 10 instead of the 12
Suggest correction new What's this?
You can suggest a correction to this tab. Community and Mods will review your correction and vote to approve or reject it.
comments
We did not receive enough feedback on this tab! Please rate:
print report bad tab
1 2 3 4 5
guest
You may want to rate the tab now too:
select rating
Please do not post tabs as comments. Select "correction" instead!