Oops, an error
Loading. Please wait.

Everybody Here Is A Cloud Tab

6,787 views 1 this week
2 commentsread comments
1 2 3 4 5
excellent!
x 3
add to favorites
launch autoscroll
font size
0
reset
how to read this tab
guitar tuner
Autoscroll
slow
fast
+/-
esc
set tempo
stop
Help us to improve Ultimate-Guitar.com Take our survey!
×
Author
Difficulty
intermediate
Artist: Cloud Cult
Song: Everybody Here Is A Cloud
Album: Feel Good Ghosts
Tabbed by: Don Tago
Email: recebedou@yahoo.com

Tuning:EADGBe

Intro/Verse Riff:
  (fade in)                                                     (until verse)
e|---------------------------------------------------------------------------|
B|---------------------------------------------------------------------------|
G|-----6---6---6---6---6---6---6---6---6---6---6---6---6-----6---6---6---6---|
D|---4---4---4---4---4-------------------------------------4---4---4---4---4-|
A|---------------------------------------------------------------------------|
E|-----------------------5---5---5---5---5---5---5---5---5-------------------|

Chorus 1 Riff: (repeat 3x) (there is some variation which is easy to pick up)
   Everybody…        …cloud.        Everybody here…   …will evaporate…    etc…     
e|---------------------------------------------------------------------------|
B|---------------------------------------------------------------------------|
G|---------------------------------------------------------------------------|
D|----7---7---7---7---7---7---7---7----9---9---9---9----11---11---9---9------|
A|--5---5---5---5--------------------7---7---7---7---9-----9----7---7--------|
E|------------------5---5---5---5--------------------------------------------|

(End Chorus 1 by going back to the Intro riff)

Verse 1:
You’ve been spending your time, thinking about why you…
(The lyrics for Verse 1 are sung over the Intro/verse riff)

Bridge 1: (repeat 2x)
    Sir-be, sir-be, sir-be…                …zoom             ...zoom, zoom…
e|--------------------------------------------------------------------------|
B|--------------------------------------------------------------------------|
G|-------------------------------------------6-----------------6-6-6-6------|
D|----11---11---11---11---11---11---11---11--7--7---7---7---7--7-7-7-7------|
A|--9----9----9----9----9----9----9----9-----7-----------------7-7-7-7------|
E|-------------------------------------------5----5---5---5----5-5-5-5------|

Chorus 2: Play Chorus 1 riff

Bridge 2: Instrumental
e|---------------------------------------------------------------------------|
B|---------------------------------------------------------------------------|
G|---------------------------------------------------------------------------|
D|----11---11---11---11---11---11---11---11---7---7---7---7---7---7---7---7--|
A|--9----9----9----9----9----9----9----9-------------------------------------|
E|------------------------------------------5---5---5---5---5---5---5---5----|

e|---------------------------------------------------------------------------|
B|---------------------------------------------------------------------------|
G|--11-11-11-11-11-11-11-11--------------------------------------------------|
D|--11-11-11-11-11-11-11-11----7---7---7---7---7---7---7---7---7-------------|
A|--9--9--9--9--9--9--9--9---------------------------------------------------|
E|--9--9--9--9--9--9--9--9---5---5---5---5---5---5---5---5---5---------------|

Bridge 3: Use Bridge 1 Riff (repeat 2x)
-Everybody here is waiting for the next creation…

Final Chorus: Play Chorus 1 riff.

Outro riff: (repeat 3x) (Played over chimes)

e|--------------------------------------------------------------------------|
B|--------------------------------------------------------------------------|
G|--7--9-p-7----------------------------------------------------------------|
D|-------------7--9--7-----------7--9--7------------------------------------|
A|----------------------7--9--7---------------------------------------------|
E|--------------------------------------------------------------------------|


Suggest correction
What's this?
You can suggest a correction to this tab. Community and Mods will review your correction and vote to approve or reject it.
comments
We did not receive enough feedback on this tab! Please rate:
print report bad tab
1 2 3 4 5
2 comments total.
0 reply
shacamin 61 wrote on December 14 2008, 11:50 am

The intro and verse riff are a little off. The basic concept is right, but the melody is a little wrong.

0 reply
infraruxx 95 wrote on December 18 2008, 02:40 pm

Good job, at first glance it seems pretty accurate

guest
You may want to rate the tab now too:
select rating
Please do not post tabs as comments. Select "correction" instead!