Oops, an error
Loading. Please wait.

Lightning Girl Bass Tab

241 views 1 this week
no commentswrite comment
1 2 3 4 5
3 more votes to show rating
add to favorites
launch autoscroll
font size
0
reset
guitar tuner
Autoscroll
slow
fast
+/-
esc
set tempo
stop
Help us to improve Ultimate-Guitar.com Take our survey!
×
Author
-------------------------------------------------------------------------------
			     Lightning Girl - Cloud Cult
                           (Lost Songs from the Lost Years)
-------------------------------------------------------------------------------

Tabbed By : Jojo
e-mail: alfano3@illinoi.edu
Probably my favorite Cloud Cult song so I have the first bits figured out for bass.

Tuning: Standard

| /  slide up
| \  slide down
| h  hammer-on
| p  pull-off
| ~  vibrato
| +  harmonic
| x  Mute note

1st Verse:
G|-------------12------12------11-----------12-13-15--15-------11------------|
D|------------------13------9------------------------------9-----------------|
A|-6----------------------------------6--------------------------------------|
E|---------------------------------------------------------------------------|
Reapeat 12x

"So she took me to the sky"
G|---------------------------------------------------------------------------|
D|---------------------------------------------------------------------------|
A|-6-6-6-8-8-8-9-9-6-6-6-8-8-8-9-9-6-6-6-8-8-8-9-9-11-11-11-9-9-9-8-8--------|
E|---------------------------------------------------------------------------|
Repeat: 4x

Play verse 1 for 4x
After that there is a bass solo which I haven't been able to figure out fully. Its built 
the verse so have fun playing your own solo.

Goes back to verse 1 with scattered soloes
Suggest correction
Give kudos to tab author, rate the tab!
1 2 3 4 5
comments
print report bad tab
guest
You may want to rate the tab now too:
select rating
Wanna post a correction for this tab? Suggest correction