Oops, an error
Loading. Please wait.

Running With The Wolves Unplug Chords

3,618 views 9 this week
no commentswrite comment
1 2 3 4 5
excellent!
x 6
add to favorites
launch autoscroll
font size
0
reset
transpose
0
reset
display chords
guitar tuner
Autoscroll
slow
fast
+/-
esc
set tempo
stop
Help us to improve Ultimate-Guitar.com Take our survey!
×
Difficulty
novice
Running with the Wolves - Cloud Cult (Unplug)
Tabbed by Maria :)

Intro: D G

D 
Running with the wolves.
        A          G
It's time for us to go.
D
Left all our clothes.
        A          G
With the car back by the road.

A
And we were running.
A
For a reason.
G
For the burning, in our veins.
A
And we were running.
A
For a reason.
G
We just need to get away.

Instrumental:
D G
D G

D
Running with the wolves.
       A              G
We're screaming at the stars.
D
Left all we own.
       A              G
In a hole in our backyard.

A
And we were running.
A
For a reason.
G
Left our cubicles in little flaming piles.
A
And we were running.
A
For a reason.
G
I need to feel something different for just a little while.

Instrumental:
D  A G

D
I'm not coming home.
   A                G
I'm staying with the wolves.
D 
They can burn all my mail.
   A                G
And disconnect my phone.
A
Tell my mom I'm sorry, sorry for leaving.
G
But I'm staying where I'm at
A
Now we're running to find meaning.
G                         D    G
We're gone, and we're never coming back


Instrumental:
D  A G
D  A G
D



Melody: (Cloud cult doesn't play it on the guitar, but here it is if you want it)

e|---------------------------------------------|
B|-7--7-5-7--5-----------7-7-5--7--------------|
G|-------------7------------------7------------|
D|-------------------7-7-----------------------|
A|---------------------------------------------|
E|---------------------------------------------|  x2

e|-5-5-5-5-----5-5-5-5----5-5-5----5-----------|
B|---------5-----------5--------8----7---------|
G|-------------------------------------7-------|
D|---------------------------------------------|
A|---------------------------------------------|
E|---------------------------------------------|

e|-5-5-5-----5-5-5------------------5-5--5---5-|
B|-------5---------5----7------------------7---|
G|-------------------------7-------------------|
D|------------------------------7-7------------|
A|---------------------------------------------|
E|---------------------------------------------|
Suggest correction
What's this?
You can suggest a correction to this tab. Community and Mods will review your correction and vote to approve or reject it.
comments
print report bad tab
guest
You may want to rate the tab now too:
select rating
Please do not post tabs as comments. Select "correction" instead!