Oops, an error
Loading. Please wait.

The Ghost Inside Our House Tab

1,584 views 9 this week
no commentswrite comment
1 2 3 4 5
please rate
add to favorites
launch autoscroll
font size
0
reset
how to read this tab
guitar tuner
Autoscroll
slow
fast
+/-
esc
set tempo
stop
Help us to improve Ultimate-Guitar.com Take our survey!
×
Author
Cloud Cult - The Ghost Inside Our House 
from Feel Good Ghosts (Tea Partying Through Tornados)
my youtube: porkstorm
my email: interjection@gmail.com


Chords:
 G    D  Dsus2 Gsus2 Cadd9
---  -2-  -0-   ---   ---
-3-  -3-  -3-   -0-   -3-
-4-  -2-  -2-   -0-   -0-
-5-  -0-  -0-   -0-   -2-
---  ---  ---   -0-   -3-
---  ---  ---   -3-   ---




0:00
     G           D           C                     C
e|---------------2---2-2-----0---0-0-0----------------|
B|---3---3-3-----3---3-3-----1---1-3-3/5--5p-3-3\1-1--|
G|-4-4---4-4---2-2---2-2-----0---0-0-0----0--0-0---0--|
D|---5-----------------------2---2-X-0----0--0-0---2--|
A|-------------------------3-3---3-3-3/5--5--5-5\3-3--|
E|----------------------------------------------------|


   C    Dsus2         Gsus2
e|------0-0---------------------------|
B|-1-1--3-3---3---3---0---------------|
G|-0-0--2-2---0---0---0--0-0-0-0-2-0--|
D|-2-2--0-0---0h2-0-0-0--0-0-0-0-0-0--|
A|-3-3--------------2-0--0-0-0-0-0-0--|
E|--------------------3--3-3-3-3-3-3--|



0:32
      Cadd9       c       Cadd9            
e|----0-0-0-0-----0-0-0-0--------------------|
B|----3-3-3-3-----1-1-1-1-----3------3---3---|
G|----0-0-0-0-----0-0-0-0-0-0-0------0---0-0-|
D|--2-2-2-2-2-2---2-2-2-2-2-2-2------2---2-2-|
A|--------------3-3-3-3-3------------------3-|
E|-------------------------------------------|


0:41
G5 F#5 E5
Live on, baby, live on

0:49
C A5 C A5
(humming - open C, then slide up to play A5 at fret 5 instead of the open A5)


End on this:

 G
---
---
-0-
-0-
-2-
-3-




| /   slide up
| \   slide down
| h   hammer-on
| p   pull-off
| ~   vibrato
| +   harmonic
| x   Mute note
************************************
Suggest correction
What's this?
You can suggest a correction to this tab. Community and Mods will review your correction and vote to approve or reject it.
comments
We did not receive enough feedback on this tab! Please rate:
print report bad tab
1 2 3 4 5
guest
You may want to rate the tab now too:
select rating
Please do not post tabs as comments. Select "correction" instead!