Oops, an error
Loading. Please wait.

Transistor Radio Tab

version 1
version 1

Whole song

6,448 views 9 this week
3 commentsread comments
1 2 3 4 5
please rate
add to favorites
launch autoscroll
font size
0
reset
how to read this tab
guitar tuner
Autoscroll
slow
fast
+/-
esc
set tempo
stop
Help us to improve Ultimate-Guitar.com Take our survey!
×
Author
Capo
7th fret
I couldn't believe no one had tabbed this song yet.  i looked all over the internet, and
able to find nothing but a request for this song to be tabbed, i figured id give it a
is the first song that i have ever completely tabbed and posted so any feedback is 
 Go listen to this song if you've never heard it.  its an amazing song and very fun to
 This one goes out to alkeyboy who requested this tab like 6 months ago.


capo on 7th fret
annotated as if played without capo


Riff 1
e-------------|
B------12-----|
G---11--------|
D-9-----------| X4
A-------------|
E-------------|


Riff 2
e--------------------------------------------|
B------7-----7-------7-------7--------7------|
G---9-----9--------9-------9--------9--------|
D-9-----8------------------------------------|
A----------------11------9---------7---------|
E--------------------------------------------|

this part is still missing a few notes, but just kind of fiddle with the strings a
bit between the two parts and after the second part and it will sound good.
Riff 3
e--------14-------------14-----------|
B--12-------------12-----------------|
G------9---------------9-------------|
D------------------------------------|
A-7-------------7--------------------|
E------------------------------------|


same technique as above
Riff 4
e---------14--------------11------|
B---12-------------12-------------|
G-------9--------------11---------|
D----------------9----------------|
A-7-------------------------------|
E---------------------------------|

Riff 5
e------------|
B------12----|
G---13-------|
D-9----------| X4
A------------|
E------------|

Riff 6
e----------|
B-----7----|
G---9------|
D-8--------| X4
A----------|
E----------|

Riff 7
e----------11--------------14------|
B---12------------12---------------|
G-------11--------------9----------|
D-9--------------------------------|
A---------------7------------------|
E----------------------------------|


order:
1-2-3
1-2-4
1-2-4
5-6-7-5-6 (play the last riff 6 only once, and slowly)

repeat that full sequence 3 times

1-2-3
1-2-4
1-2-4-4
Suggest correction
Give kudos to tab author, rate the tab!
1 2 3 4 5
comments
print report bad tab
3 comments total.
0 reply
desperado6543 62 wrote on April 28 2007, 02:48 pm

hey sorry, i made a small mistake when i made this tab, and since UG hasnt emailed me back about how to make corrections, and they rejected my corrected tab for some reason i dont understand.....ill just put the correction here. Riff 4 is slightly off. It should be this.

Riff 4
e---------14--------------11------|
B---12-------------12-------------|
G-------9--------------11---------|
D----------------9----------------|
A-7-------------------------------|
E---------------------------------|

-1 reply
skateboarder873 10 wrote on December 10 2007, 01:51 pm

Here it is relative to the capo:

Riff 1
e-------------|
B------5-----|
G---4--------|
D-2-----------|
X4
A-------------|
E-------------|


Riff
2
e--------------------------------------------|
B------0-----0-------0-------0--------0------|
G---2-----2--------2-
------2--------2--------|
D-2-----1------------------------------------|
A----------------4------2---------0---------|

E--------------------------------------------|

this part is still missing a few notes, but just kind of fiddle with
the strings a
bit between the two parts and after the second part and it will sound good.
Riff
3
e--------7-------------7-----------|
B--5-------------5-----------------|
G------2---------------2-------------|
D
------------------------------------|
A-0-------------0--------------------|
E------------------------------------|



same technique as above
Riff
4
e---------7--------------4------|
B---5-------------5-------------|
G-------2--------------4---------|
D----------
------2----------------|
A-0-------------------------------|
E---------------------------------|

Riff
5
e------------|
B------5----|
G---6-------|
D-2----------| X4
A------------|
E------------|

Riff
6
e----------|
B-----0----|
G---2------|
D-1--------| X4
A----------|
E----------|

Riff
7
e----------4--------------7------|
B---5------------5---------------|
G-------4--------------2----------|
D-2-----
---------------------------|
A---------------0------------------|
E----------------------------------|

0 reply
skateboarder873 10 wrote on December 10 2007, 01:51 pm

Riff 1
e-------------|
B------5-----|
G---4--------|
D-2-----------| X4
A-------------|
E-------------|


Riff 2
e--------------------------------------------|
B------0-----0-------0-------0--------0------|
G---2-----2--------2-------2--------2--------|
D-2-----1------------------------------------|
A----------------4------2---------0---------|
E--------------------------------------------|

this part is still missing a few notes, but just kind of fiddle with the strings a
bit between the two parts and after the second part and it will sound good.
Riff 3
e--------7-------------7-----------|
B--5-------------5-----------------|
G------2---------------2-------------|
D------------------------------------|
A-0-------------0--------------------|
E------------------------------------|


same technique as above
Riff 4
e---------7--------------4------|
B---5-------------5-------------|
G-------2--------------4---------|
D----------------2----------------|
A-0-------------------------------|
E---------------------------------|

Riff 5
e------------|
B------5----|
G---6-------|
D-2----------| X4
A------------|
E------------|

Riff 6
e----------|
B-----0----|
G---2------|
D-1--------| X4
A----------|
E----------|

Riff 0
e----------4--------------7------|
B---5------------5---------------|
G-------4--------------2----------|
D-2--------------------------------|
A---------------0------------------|
E----------------------------------|

guest
You may want to rate the tab now too:
select rating
Please do not post tabs as comments. Select "correction" instead!