Oops, an error
Loading. Please wait.

Transistor Radio Tab

version 3
version 3

Whole song

1,265 views 6 this week
no commentswrite comment
1 2 3 4 5
excellent!
x 1
add to favorites
launch autoscroll
font size
0
reset
how to read this tab
guitar tuner
Tab Pro tools
  • play this tab
  • loop segment
  • change instrument
  • show fretboard
  • metronome
Autoscroll
slow
fast
+/-
esc
set tempo
stop
Difficulty
intermediate
Cloud Cult - Transistor Radio

There are a few tabs floating around for this song that use an incorrect tuning and
incorrect capo position.  This version is not necessarily 100% correct, but should give you
a better idea of how the actual song is played.  Differences between this and the 
original song will be largely a matter of finger-picking style.  It gets the gist, anyway.
Enjoy. -Andrew

Tuning: DADGAD
Capo on fret 9
Fingering relative to capo

INTRO
Riff 1 (x4)
-----------|
------4----|
---2-------|
-0---------|
-----------|
-----------|

Riff 2
-----------------------------------0------7----------0-------7---|
-----0------0-------0------0-----0---0------0------0---0---------|
---0------0-------0------0-----0-------------0---0---------------|
-0---------------------------------------------------------------|
-------4-------2------0------------------------------------------|
------------------------------5---------5-------5----------5-----|

VERSE (x2)
Riff 1 (x4)
-----------|
------4----|
---2-------|
-0---------|
-----------|
-----------|

Riff 2
-----------------------------------0------7-----------0-------4------|
-----0------0-------0------0-----0---0------0-------0---0-------0----|
---0------0-------0------0-----0-------------0----0---------------0--|
-0-------------------------------------------------------------------|
-------4-------2------0----------------------------------------------|
-----------------------------5----------5-------0-----------0--------|

CHORUS
Riff 1(x4)	Riff 2(x4)	Riff 3(x1)		        Riff 4(x1)
---------|	---------|	-------0-------4--|	-------0-------7-|
-----7---|	---------|	-----0---0--------|	-----0---0-------|
---6-----|	-----2---|	---0--------------|	---0-------------|
-7-------|	---0-----|	------------------|	-----------------|
---------|	-4-------|	------------------|	-----------------|
---------|	---------|	-0-----------0----|	-5-----------5---|

Riff 1 (x4)	Riff 5(x1)
---------|	-----------|
-----7---|	-----------|
---6-----|	-------0---|
-7-------|	----2------|
---------|	-4---------|
---------|	-----------|
comments
We did not receive enough feedback on this tab! Please rate:
print report bad tab
1 2 3 4 5
I want to post or [tab]
guest
You may want to rate the tab now too:
select rating
Please do not post tabs as comments. Select "correction" instead!