Oops, an error
Loading. Please wait.

You Were Born Tab

version 1
version 1

Whole song

12,025 views 33 this week
no commentswrite comment
1 2 3 4 5
accurate
x 2
add to favorites
launch autoscroll
font size
0
reset
how to read this tab
guitar tuner
Tab Pro tools
  • play this tab
  • loop segment
  • change instrument
  • show fretboard
  • metronome
Autoscroll
slow
fast
+/-
esc
set tempo
stop
Contributor
Difficulty
Tuning
intermediate
D A D G B E
-------------------------------------------------------------------------------
                             YOU WERE BORN - Cloud Cult
-------------------------------------------------------------------------------
Tabbed by: Stefan Formanek
Email: tehveggies@gmail.com

Tuning: D A D F# B e,      capo on 3.



e |-----------------------------------|----------------------------------------|
B |-----------------------------------|----------------------------------------|
F#|-----------------------------------|----------------------------------------|
D |----0---------0-------0-----------0|-------0----------0---------------------|
A |--------7p9-----------------7p9----|------------7p9---------------0--------0|
D |0-----------------0----------------|--0----------------------9--------7-----|

e |-----------------------------------|----------------------------------------|
B |-----------------------------------|----------------------------------------|
F#|-----------------------------------|----------------------------------------|
D |----0---------0-------0-----------0|-------0----------0-----------0--------0|
A |--------7p9-----------------7p9----|------------7p9-------------------------|
D |0-----------------0----------------|--0----------------------4--------5-----|

repeat til you start singing :)   then it goes (i think):



e |-----------------------------------|----------------------------------------|
B |-----------------------------------|----------------------------------------|
F#|-----------------------------------|----------------------------------------|
D |----0---------0-------0-----------0|-------0----------0---------------------|
A |--------7p9-----------------7p9----|------------7p9---------------0--------0|
D |0-----------------0----------------|--0----------------------9--------7-----|

e |-----------------------------------|----------------------------------------|
B |-----------------------------------|----------------------------------------|
F#|-----------------------------------|----------------------------------------|
D |----0---------0-------0-----------0|-------0----------0-----------0--------0|
A |--------7p9-----------------7p9----|------------7p9-------------------------|
D |0-----------------0----------------|--0----------------------2--------4-----|


chorus  (really not so accurate, but a good start to learn on)

e |-----------------------------------|----------------------------------------|
B |-----------------------------------|----------------------------------------|
F#|-------------5-----------------5---|---------------5-------------------5----|
D |----5-----------------5------------|-----5-------------------5--------------|
A |-----------------------------------|----------------------------------------|
D |5-------5--------5--------5--------|5---------5---------5--------5----------|

e |-----------------------------------|----------------------------------------|
B |-----------------------------------|----------------------------------------|
F#|-----------------------------------|------------------7--------------------7|
D |----0---------0-------0-----------0|-------7---------------------7----------|
A |--------7p9-----------------7p9----|----------------------------------------|
D |0-----------------0----------------|--7---------7----------7----------7-----|

then it goes back to the beginning of the song.
this is meant to be a guide rather than a 100% accurate tab, I simply did my best.  
first tab.  thanks!

************************************

| /   slide up
| \   slide down
| h   hammer-on
| p   pull-off
| ~   vibrato
| +   harmonic
| x   Mute note
| b   Bend
| pb  Pre-bend
| br  Bend release
| pbr Pre-bend release
| brb Bend release bend

************************************
comments
We did not receive enough feedback on this tab! Please rate:
print report bad tab
1 2 3 4 5
I want to post or [tab]
guest
You may want to rate the tab now too:
select rating
Please do not post tabs as comments. Select "correction" instead!