Oops, an error
Loading. Please wait.

You Were Born Tab

version 2
version 2

Whole song

8,855 views 33 this week
no commentswrite comment
1 2 3 4 5
excellent!
x 6
add to favorites
launch autoscroll
font size
0
reset
how to read this tab
guitar tuner
Tab Pro tools
  • play this tab
  • loop segment
  • change instrument
  • show fretboard
  • metronome
×
Best way to learn
"You Were Born"
Autoscroll
slow
fast
+/-
esc
set tempo
stop
Contributor
Difficulty
Tuning
Capo
novice
D A D F# A D
3rd fret
-------------------------------------------------------------------------------
                                     Cloud Cult - (The Baby - )You Were Born
-------------------------------------------------------------------------------
Tabbed by: Ace

Tuning: DADF#AD (Open D Tuning), Capo 3

Included is the Intro, Verse, Chorus and lead in to the 2nd verse.  The song 
follows the same general pattern for the duration. I tried putting the lyrics
in the right spot as much as possible so you can figure out the timing. Enjoy!

Intro and Verse (play 4 times total):

        You were born in___ to a strange world.
D |---------------------------------------------------------------------------|
A |---------------------------------------------------------------------------|
F#|---------------------------------------------------------------------------|
D |---0-----0---0-----0---0-----0---------------------------------------------|
A |-----7h9-------7h9-------7h9-----0---0-------------------------------------|
D |-0---------0---------0---------9---7---------------------------------------|

       Like a candle, you were meant to share the fire. I don't 
D |---------------------------------------------------------------------------|
A |---------------------------------------------------------------------------|
F#|---------------------------------------------------------------------------|
D |---0-----0---0-----0---0-----0---------------------------------------------|
A |-----7h9-------7h9-------7h9-----0---0-------------------------------------|
D |-0---------0---------0---------4---5---------------------------------------|

   Chorus:
   know where we...know where we go...arms were made..never let you go, Cuz you were born
D |---------------------------------|-----------------------------------------|
A |-----0-------0-------0-------0---|---------------------0-------------------|
F#|---5---5---5---5---8---8---8---8-|---0---0---0---0-------------------------|
D |-5-------5-------9-------9-------|-----0-------0-----2---2-----------------|
A |---------------------------------|-0-------0-------0-------0---------------|
D |---------------------------------|-----------------------------------------|

                            ...to change this life
D |---------------------------------------------------------------------------|
A |---------------------------------------------------------------------------|
F#|---------------------------------------------------------------------------|
D |---0-----0---0-----0---0-----0---------------------------------------------|
A |-----7h9-------7h9-------7h9-----0---0-------------------------------------|
D |-0---------0---------0---------4---5---------------------------------------|

   You were born               to chase the light.
D |---------------------------------------------------------------------------|
A |---------------------------------------------------------------------------|
F#|---------------------------------------------------------------------------|
D |---0-----0---0-----0---0-----0---------------------------------------------|
A |-----7h9-------7h9-------7h9-----0---0-------------------------------------|
D |-0---------0---------0---------9---7---------------------------------------|

   Cuz you were born
D |---------------------------------------------------------------------------|
A |---------------------------------------------------------------------------|
F#|---------------------------------------------------------------------------|
D |---0-----0---0-----0---0-----0---------------------------------------------|
A |-----7h9-------7h9-------7h9-----0---0-------------------------------------|
D |-0---------0---------0---------4---5---------------------------------------|

D |---------------------------------------------------------------------------|
A |---------------------------------------------------------------------------|
F#|---------------------------------------------------------------------------|
D |---0-----0---0-----0---0-----0---------------------------------------------|
A |-----7h9-------7h9-------7h9-----0---0-------------------------------------|
D |-0---------0---------0---------9---7---------------------------------------|




************************************

| /   slide up
| \   slide down
| h   hammer-on
| p   pull-off
| ~   vibrato
| +   harmonic
| x   Mute note
| b   Bend
| pb  Pre-bend
| br  Bend release
| pbr Pre-bend release
| brb Bend release bend

************************************
comments
print report bad tab
I want to post or [tab]
guest
You may want to rate the tab now too:
select rating
Please do not post tabs as comments. Select "correction" instead!