Oops, an error
Loading. Please wait.

Youll Be Bright Chords

version 1
version 1

Whole song

1,735 views 3 this week
no commentswrite comment
1 2 3 4 5
please rate
add to favorites
launch autoscroll
font size
0
reset
transpose
0
reset
display chords
guitar tuner
Autoscroll
slow
fast
+/-
esc
set tempo
stop
Help us to improve Ultimate-Guitar.com Take our survey!
×
Contributor
Difficulty
cowardm 60
novice
Cloud Cult
The Invocation Pt 1 - You’ll be Bright

Also sounds great played in Drop D.


D
All the things you'll love,
All the things that may hurt you,
All the things you shouldn't do,
And all the things you want to...
G
They're calling your name...travel safely.
D
Every first kiss, every crisis, every heartbreak and every act of kindness...
G
They're calling your name...travel safely.
D
Every empire, every monument, every masterpiece and every invention,
G
They're calling your name...travel safely.


D
I found stars on the tip of your tongue.
F             G              D                F      G       D
You speak Poltergeist, so do I. So do I.  So do I.  So do I.  So do I.

D  Bm  G  Bm  G

e------------------------------------|
B------------------------------------|
G--11--11--------11--11--------------|
D-------12-------------12------------|
A------------------------------------|
E------------------------------------|

e---------------------------------------------------------------|
B------------------10-----------10------------------------------|
G--------11--12-------3x------------12--11----------------------|
D---12----------------------------------------12----------------|
A---------------------------------------------------------------|
E---------------------------------------------------------------|


D
What comes will come.
What goes will go.
The wind will blow where the wind is blowing.
Bm                    G
Let go of where you think you're going.
Bm                                      G
We'll never know why it flows where it's flowing.

D
We've always been what we will always be.
         F                        G                    D
I'm so convinced we have to get there, we can part the sea.
D
So bring the dead to life, turn your blood to wine.
              F                                       G
All your life you have waited for this moment to arrive.
D
And you'll be bright.

D       Bm                     G  Bm       G
       Youll be bright  brrriiiight
comments
We did not receive enough feedback on this tab! Please rate:
print report bad tab
1 2 3 4 5
I want to post or [tab]
guest
You may want to rate the tab now too:
select rating
Please do not post tabs as comments. Select "correction" instead!