Oops, an error
Loading. Please wait.

Modern Act bass

124 views 1 this week
no commentswrite comment
1 2 3 4 5
3 more votes to show rating
add to favorites
×
Save as Personal and add changes to this tab that will be seen only by you. Learn more ›
×
You can save this tab as Personal to edit and correct it or add notes. All changes will be seen only by you. Learn more »
launch autoscroll
font size
0
reset
guitar tuner
edit
Autoscroll
slow
fast
+/-
esc
set tempo
stop
Author
Difficulty
Standard Tuning

[Verse 1]
G|------------------|------------------|------------------|------------------| }
D|------------------|-----------4------|------------------|------------------| } X3
A|-0---0---0-0------|---2-----2---2----|-5---5---5-5---5--|---5---5---5-5----| }
E|------------------|------------------|------------------|------------------| }
 (End of Verse)
G|------------------|------------------|------------------|------------------|
D|------------------|-----------4------|------------------|------------------|
A|-0---0---0-0------|---2-----2---2----|-5---5---5-5---5--|---5---5---5-5-7--|
E|------------------|------------------|------------------|------------------|

Here we are among the living
See and count your friends
Gathered in a room together
This is how it ends
Can't stand the modern act
Whose war is this, what god is that?
Feels like the tide is only
Starting to come in

[Chorus]
G|------------------|------------------| }
D|------------------|------------------| } X2
A|-5----------------|-9----------------| }
E|------------------|------------------| }

Do you know what it's like
To be out and alive?
To say you're doing alright
Yeah, you're doing just fine?…

G|------------------|------------------|------------------|------------------| }
D|------------------|------------------|------------------|------------------| } X2
A|-5-5-5-5-5-5-5-5--|-5-5-5-5-5-5-5-5--|------------------|-9-9-9-9-7-7-7-7--| }
E|------------------|------------------|-5-5-5-5-5-5-5-5--|------------------| }

When you feel like an ocean
Coming out of a creek
Filling rivers to wait for you
Wherever you are?
When you're out and around
And all you ever see
Are people looking away?
It's nothing new to me

G|------------------|------------------|------------------|------------------| }
D|------------------|------------------|------------------|------------------| } X4
A|-5----------------|------------------|------------------|------------------| }
E|------------------|-5----------------|-2----------------|-5----------------| }

I want a life, that's all I need lately
I am alive but all alone
(Repeat 4X)

G|------------------|------------------|
D|------------------|------------------|
A|-9----------------|-5----------------|
E|------------------|------------------|

G|------------------|------------------|------------------|------------------| } 
D|------------------|-----------4------|------------------|------------------| } X2
A|-0---0---0-0------|---2-----2---2----|-5---5---5-5---5--|---5---5---5-5----| }
E|------------------|------------------|------------------|------------------| }
 (Above riff 2X then)

[Verse]
G|------------------|------------------|------------------|------------------| }
D|------------------|-----------4------|------------------|------------------| } X3
A|-0---0---0-0------|---2-----2---2----|-5---5---5-5---5--|---5---5---5-5----| }
E|------------------|------------------|------------------|------------------| }
 (End of Verse)
G|------------------|------------------|------------------|------------------|
D|------------------|-----------4------|------------------|------------------|
A|-0---0---0-0------|---2-----2---2----|-5---5---5-5---5--|---5---5---5-5-7--|
E|------------------|------------------|------------------|------------------|

Calling on the light, forgiving
See to all and then
Waiting on the old, expiring force
To go and end
Can't stand the modern act
Whose war is this, what god is that?
Feels like the tide is only
Starting to come in

[Chorus]
G|------------------|------------------| }
D|------------------|------------------| } X2
A|-5----------------|-9----------------| }
E|------------------|------------------| }

Do you know what it's like
To be out and alive?
To say you're doing alright
Yeah, you're doing just fine?…

G|------------------|------------------|------------------|------------------| }
D|------------------|------------------|------------------|------------------| } X2
A|-5-5-5-5-5-5-5-5--|-5-5-5-5-5-5-5-5--|------------------|-9-9-9-9-7-7-7-7--| }
E|------------------|------------------|-5-5-5-5-5-5-5-5--|------------------| }

When you feel like an ocean
Coming out of a creek
Filling rivers to wait for you
Wherever you are?
When you're out and around
And all you ever see
Are people looking away?
It's nothing new to me

G|------------------|------------------|------------------|------------------| }
D|------------------|------------------|------------------|------------------| } X4
A|-5----------------|------------------|------------------|------------------| }
E|------------------|-5----------------|-2----------------|-5----------------| }

I want a life, that's all I need lately
I am alive but all alone
(Repeat 4X)

G|------------------|------------------|
D|------------------|------------------|
A|-9----------------|-5----------------|
E|------------------|------------------|

G|------------------|------------------|------------------|------------------| } 
D|------------------|-----------4------|------------------|------------------| } X2
A|-0---0---0-0------|---2-----2---2----|-5---5---5-5---5--|---5---5---5-5----| }
E|------------------|------------------|------------------|------------------| }
 (Above riff 2X then)

[Bridge]
G|------------------|------------------| }
D|------------------|------------------| }  REPEAT 3X
A|-9----------------|-0----------------| }
E|------------------|------------------| }

G|------------------|------------------| }
D|------------------|------------------| }
A|-9-9-9-9-7-7-7-7--|-5----------------| }
E|------------------|------------------| }

Left the light on to take account
Of all the fire in me
Won't come over and make it out
A little lighter to see
Left the light on to take account
Of all the fire in me
Won't come over and make it out
A little lighter to see
See you and...

[Chorus]
G|------------------|------------------| }
D|------------------|------------------| } X2
A|-5----------------|-9----------------| }
E|------------------|------------------| }

Do you know what it's like
To be out and alive?
To say you're doing alright
Yeah, you're doing just fine?…

G|------------------|------------------|------------------|------------------| }
D|------------------|------------------|------------------|------------------| } X2
A|-5-5-5-5-5-5-5-5--|-5-5-5-5-5-5-5-5--|------------------|-9-9-9-9-7-7-7-7--| }
E|------------------|------------------|-5-5-5-5-5-5-5-5--|------------------| }

When you feel like an ocean
Coming out of a creek
Filling rivers to wait for you
Wherever you are?
When you're out and around
And all you ever see
Are people looking away?
It's nothing new to me

G|------------------|------------------|------------------|------------------| }
D|------------------|------------------|------------------|------------------| } X4
A|-5----------------|------------------|------------------|------------------| }
E|------------------|-5----------------|-2----------------|-5----------------| }

I want a life, that's all I need lately
I am alive but all alone
(Repeat 4X)

G|------------------|------------------|
D|------------------|------------------|
A|-9----------------|-5----------------|
E|------------------|------------------|

G|------------------|------------------|------------------|------------------| } 
D|------------------|-----------4------|------------------|------------------| } X2
A|-0---0---0-0------|---2-----2---2----|-5---5---5-5---5--|---5---5---5-5----| }
E|------------------|------------------|------------------|------------------| }
 (Above riff 2X then)



************************************

| (End of Verse) 

************************************

            
            
Suggest correction
Creating personal tab
Creating personal tab
You can edit any tab online and save it as your Personal.

You can edit, replace or remove any tab part or add personal notes – all changes will be seen only by you.

Personal tabs can be accessed anytime from any device, even offline.
Learn more »
Give kudos to tab author, rate the tab!
1 2 3 4 5
comments
print report bad tab
guest
You may want to rate the tab now too:
select rating
Wanna post a correction for this tab? Suggest correction