Oops, an error
Loading. Please wait.

Not Important Tab

826 views 1 this week
1 commentread comment
1 2 3 4 5
3 more votes to show rating
add to favorites
launch autoscroll
font size
0
reset
how to read this tab
guitar tuner
Autoscroll
slow
fast
+/-
esc
set tempo
stop
Help us to improve Ultimate-Guitar.com Take our survey!
×
Author
Album: Cloud Nothings

Rhythm guitar only

Intro/Verse

e -------------------------------|
B -------------------------------|
G 4-4-4-4-4-4-4-4-8-8-8-8-9-9-9-9|
D 4-4-4-4-4-4-4-4-8-8-8-8-9-9-9-9|
A 2-2-2-2-2-2-2-2-6-6-6-6-7-7-7-7|
E -------------------------------|

Chorus

e ----------------|
B ----------------|
G ---44------44---|
D 6--44--44--44--6|
A 6--22--44--22--6|
E 4------22------4|

Repeat Intro, Verse, and Chorus

Bridge

e --------|
B --------|
G 44556677|
D 44556677|  x7
A 22334455|
E --------|

Then just noise til the outro

Outro

e ----------------|
B ----------------|
G 99-------------9|
D 99-999-444-666-9|
A 77-999-444-666-7|
E ---777-222-444--|
Suggest correction
Give kudos to tab author, rate the tab!
1 2 3 4 5
comments
print report bad tab
1 comment total.
0 reply
Jdm47 10 Aug 23, 2013 11:54 PM

I don't mean to actually correct, but to add on to the tab.
The lead lick is as follows:
e|----222-4-2---------------------|
B|4-4---------4-2--00-0000-0-0----|
G|---------------4-33-3334-4-4----|
D|-----------------------------4-4|
Just listen for the right rhythm. Good job on the tab!

guest
You may want to rate the tab now too:
select rating
Wanna post a correction for this tab? Suggest correction