Oops, an error
Loading. Please wait.

Stay Useless bass

316 views 3 this week
no commentswrite comment
1 2 3 4 5
3 more votes to show rating
add to favorites
×
Save as Personal and add changes to this tab that will be seen only by you. Learn more ›
×
You can save this tab as Personal to edit and correct it or add notes. All changes will be seen only by you. Learn more »
launch autoscroll
font size
0
reset
guitar tuner
edit
Autoscroll
slow
fast
+/-
esc
set tempo
stop
Author
Difficulty
[Intro]

   W                   W                   W                  H     E  E  E  E
G|-------------------|-------------------|-------------------|-------------------|
D|-------------------|-------------------|-------------------|-------------------|
A|-------------------|-------------------|-------------------|-------------------|
E|-------------------|-------------------|-------------------|---------6--6--6---|

    E  E  E  E  E  E  E  E    E  E  E  E  E  E  E  E
G||-------------------------|------------------------|
D||-------------------------|------------------------|
A||-------------------------|------------------------|
E||-4--4--4--4--4--4--4--4--|-1--1--1--1--1--1--1--1-|

   E  E  E  E  E  E  E  E   E  E  E  E  E  E  E
G|------------------------|---------------------||
D|------------------------|---------------------|| 3X
A|-4--4--4--4--4--4--4--4-|-4--4--4--4----------||
E|------------------------|-------------6--6--6-||


[Verse]

    E  E  E  E  E  E  E  E   E  E  E  E  E  E  E  E   E  E  E  E  E  E  E  E   E  E  E  E  E  E  E  E
G||------------------------|------------------------|------------------------|------------------------|
D||------------------------|------------------------|------------------------|------------------------|
A||------------------------|------------------------|------------------------|------------------------|
E||-4--4-----4--4--4-----4-|-4--4-----4--4--4-----4-|-1--1-----1--1--1-----1-|-1--1-----1--1--1-----1-|


   E  E  E  E  E  E  E  E   E  E  E  E  E  E  E  E   E  E  E  E  E  E  E  E   E  E  E  E  E  E  E  E
G|------------------------|------------------------|------------------------|-------------------------|
D|------------------------|------------------------|------------------------|-------------------------|
A|------------------------|------------------------|-4--4-----4--4--4-----4-|-6--6-----6--6--6-----6--|
E|-6--6-----6--6--6-----6-|-6--6-----6--6--6-----6-|------------------------|-------------------------|


    E  E  E  E  E  E  E  E  E  E  E  E  E  E  E  E   E  E  E  E  E  E  E  E   E  E  E  E  E  E  E  E
G|------------------------|------------------------|------------------------|------------------------|
D|------------------------|------------------------|------------------------|------------------------|
A|------------------------|------------------------|------------------------|------------------------|
E|-4--4-----4--4--4-----4-|-4--4-----4--4--4-----4-|-1--1-----1--1--1-----1-|-1--1-----1--1--1-----1-|


   E  E  E  E  E  E  E  E   E  E  E  E  E  E  E  E   E  E  E  E  E  E  E  E   E  E  E  E  E  E  E  E
G|------------------------|------------------------|------------------------|-------------------------|
D|------------------------|------------------------|------------------------|-------------------------|
A|------------------------|------------------------|-4--4-----4--4--4-----4-|-6--6-----6--6-----------|
E|-6--6-----6--6--6-----6-|-6--6-----6--6--6-----6-|------------------------|-------------------------|


[Chorus]

    E  E  E  E  E  E  E  E   E  E  E  E  E  E  E  E   E  E  E  E  E  E  E  E   E  E  E  E  E  E  E  E
G||------------------------|------------------------|------------------------|------------------------|
D||------------------------|------------------------|------------------------|------------------------|
A||-4--4--4--4--4--4--4--4-|-4--4--4--4--4--4--4--4-|------------------------|------------------------|
E||------------------------|------------------------|-4--4--4--4--4--4--4--4-|-1--1--1--1--1--1--1--1-|


   E  E  E  E  E  E  E  E   E  E  E  E  E  E  E  E   E  E  E  E  E  E  E  E   E  E  E  E  E  E  Q
G|------------------------|------------------------|------------------------|------------------------|
D|------------------------|------------------------|------------------------|------------------------|
A|-4--4--4--4--4--4--4--4-|-4--4--4--4--4--4--4--4-|------------------------|------------------------|
E|------------------------|------------------------|-4--4--4--4--4--4--4--4-|-1--1--1--1--1----------|


   E  E  E  E  E  E  E  E   E  E  E  E  E  E  E  E   E  E  E  E  E  E  E  E   E  E  E  E  E  E  E  E
G|------------------------|------------------------|------------------------|------------------------|
D|------------------------|------------------------|------------------------|------------------------|
A|-4--4--4--4--4--4--4--4-|-4--4--4--4--4--4--4--4-|------------------------|------------------------|
E|------------------------|------------------------|-4--4--4--4--4--4--4--4-|-1--1--1--1--1--1--1--1-|


   E  E  E  E  E  E  E  E   E  E  E  E  E  E  E  E   E  E  E  E  E  E  E  E   E  E  Q    H
G|------------------------|------------------------|------------------------|------------------------||
D|------------------------|------------------------|------------------------|------------------------||
A|-4--4--4--4--4--4--4--4-|-4--4--4--4--4--4--4--4-|-6--6--6--6--6--6--6--6-|-6----------------------||
E|------------------------|------------------------|------------------------|------------------------||


[Second Verse]

    E  E  E  E  E  E  E  E   E  E  E  E  E  E  E  E   E  E  E  E  E  E  E  E   E  E  E  E  E  E  E  E  
G||------------------------|------------------------|------------------------|------------------------|
D||------------------------|------------------------|------------------------|------------------------|
A||------------------------|------------------------|------------------------|------------------------|
E||-4--4--4--4--4--4--4--4-|-4--4--4--4--4--4--4--4-|-1--1--1--1--1--1--1--1-|-1--1--1--1--1--1--1--1-|


   E  E  E  E  E  E  E  E   E  E  E  E  E  E  E  E   E  E  E  E  E  E  E  E   E  E  E  E  E  E  E  E  
G|------------------------|------------------------|------------------------|-------------------------|
D|------------------------|------------------------|------------------------|-------------------------|
A|------------------------|------------------------|------------------------|-------------------------|
E|-6--6--6--6--6--6--6--6-|-6--6--6--6--6--6--6--6-|-9--9--9--9--9--9--9--9-|-11-11-11-11-11-11-11-11-|


   E  E  E  E  E  E  E  E   E  E  E  E  E  E  E  E   E  E  E  E  E  E  E  E   E  E  E  E  E  E  E  E  
G|------------------------|------------------------|------------------------|------------------------|
D|------------------------|------------------------|------------------------|------------------------|
A|------------------------|------------------------|------------------------|------------------------|
E|-4--4--4--4--4--4--4--4-|-4--4--4--4--4--4--4--4-|-1--1--1--1--1--1--1--1-|-1--1--1--1--1--1--1--1-|


   E  E  E  E  E  E  E  E   E  E  E  E  E  E  E  E   E  E  E  E  E  E  E  E   E  E  E  E  E  E  Q
G|------------------------|------------------------|------------------------|------------------------||
D|------------------------|------------------------|------------------------|------------------------||
A|------------------------|------------------------|------------------------|------------------------||
E|-6--6--6--6--6--6--6--6-|-6--6--6--6--6--6--6--6-|-9--9--9--9--9--9--9--9-|-11-11-11-11-11---------||


[Second Chorus]

    E  E  E  E  E  E  E  E   E  E  E  E  E  E  E  E   E  E  E  E  E  E  E  E   E  E  E  E  E  E  E  E
G||------------------------|------------------------|------------------------|------------------------|
D||------------------------|------------------------|------------------------|------------------------|
A||-4--4--4--4--4--4--4--4-|-4--4--4--4--4--4--4--4-|------------------------|------------------------|
E||------------------------|------------------------|-4--4--4--4--4--4--4--4-|-1--1--1--1--1--1--1--1-|


   E  E  E  E  E  E  E  E   E  E  E  E  E  E  E  E   E  E  E  E  E  E  E  E   E  E  E  E  E  E  Q
G|------------------------|------------------------|------------------------|------------------------|
D|------------------------|------------------------|------------------------|------------------------|
A|-4--4--4--4--4--4--4--4-|-4--4--4--4--4--4--4--4-|------------------------|------------------------|
E|------------------------|------------------------|-4--4--4--4--4--4--4--4-|-1--1--1--1--1----------|


   E  E  E  E  E  E  E  E   E  E  E  E  E  E  E  E   E  E  E  E  E  E  E  E   E  E  E  E  E  E  E  E
G|------------------------|------------------------|------------------------|------------------------|
D|------------------------|------------------------|------------------------|------------------------|
A|-4--4--4--4--4--4--4--4-|-4--4--4--4--4--4--4--4-|------------------------|------------------------|
E|------------------------|------------------------|-4--4--4--4--4--4--4--4-|-1--1--1--1--1--1--1--1-|


   E  E  E  E  E  E  E  E   E  E  E  E  E  E  E  E   E  E  E  E  E  E  E  E   E  E  E  E  E  E  E  E
G|------------------------|------------------------|------------------------|------------------------||
D|------------------------|------------------------|------------------------|------------------------||
A|-4--4--4--4--4--4--4--4-|-4--4--4--4--4--4--4--4-|-6--6--6--6--6--6--6--6-|-6--6--6--6--6--6--6--6-||
E|------------------------|------------------------|------------------------|------------------------||


[Bridge]

    E  E  E  E  E  E  E  E   E  E  E  E  E  E  E   E  E  E  E  E  E  E  E   E  E  E  E  E  E  E  E    
G||------------------------|---------------------|------------------------|------------------------||
D||------------------------|---------------------|------------------------|------------------------|| 3X
A||------------------------|---------------------|-4--4--4--4--4--4--4--4-|----------------6--6--6-||
E||-4--4--4--4--4--4--4--1-|----1--1--1--1--1--1-|------------------------|-6--6--6--6--6----------||

   E  E  E  E  E  E  E  E   E  E  E  E  E  E  E   E  E  E  E  E  E  E  E   E  E  E  E  E  E  Q
G|------------------------|---------------------|------------------------|------------------------|
D|------------------------|---------------------|------------------------|------------------------|
A|------------------------|---------------------|-4--4--4--4--4--4--4--4-|------------------------|
E|-4--4--4--4--4--4--4--1-|----1--1--1--1--1--1-|------------------------|-6--6--6--6--6----------|


[Outro]

    E  E  E  E  E  E  E  E   E  E  E  E  E  E  E  E   E  E  E  E  E  E  E
G||------------------------|------------------------|---------------------|
D||------------------------|------------------------|---------------------|
A||-4--4-----4--4-----4--4-|----4--4----------------|---------------------|
E||------------------------|-------------4--4-----4-|-4-----1--1-----1--1-|


    E  E  E  E  E  E  E  E   E  E  E  E  E  E  E  E   E  E  E  E  E  E  E
G||------------------------|------------------------|---------------------|
D||------------------------|------------------------|---------------------|
A||-4--4-----4--4-----4--4-|----4--4----------------|---------------------|
E||------------------------|-------------4--4-----4-|-4-----1--1-----1----|


   E  E  E  E  E  E  E  E   E  E  E  E  E  E  E  E   E  E  E  E  E  E  E  E   E  E  E  E  E  E  E  E
G|------------------------|------------------------|------------------------|------------------------|
D|------------------------|------------------------|------------------------|------------------------|
A|-4--4--4--4--4--4--4--4-|-4--4--4--4--4--4--4--4-|------------------------|------------------------|
E|------------------------|------------------------|-4--4--4--4--4--4--4--4-|-1--1--1--1--1--1--1--1-|


   E  E  E  E  E  E  E  E   E  E  E  E  E  E  E  E   E  E  E  E  E  E  E  E   E  E  Q    H
G|------------------------|------------------------|------------------------|------------------------||
D|------------------------|------------------------|------------------------|------------------------||
A|-4--4--4--4--4--4--4--4-|-4--4--4--4--4--4--4--4-|-6--6--6--6--6--6--6--6-|-4----------------------||
E|------------------------|------------------------|------------------------|------------------------||












************************************

Duration Legend
---------------
W - whole
H - half
Q - quarter
E - 8th

************************************

            
            
Suggest correction
Creating personal tab
Creating personal tab
You can edit any tab online and save it as your Personal.

You can edit, replace or remove any tab part or add personal notes – all changes will be seen only by you.

Personal tabs can be accessed anytime from any device, even offline.
Learn more »
Give kudos to tab author, rate the tab!
1 2 3 4 5
comments
print report bad tab
guest
You may want to rate the tab now too:
select rating
Wanna post a correction for this tab? Suggest correction