Oops, an error
Loading. Please wait.

Here Wait A Minute Damn It Tab

version 1
version 1

Whole song

Interactive

4,436 views 6 this week
no commentswrite comment
1 2 3 4 5
x 4
add to favorites
launch autoscroll
font size
0
reset
how to read this tab
guitar tuner
Autoscroll
slow
fast
+/-
esc
set tempo
stop
Help us to improve Ultimate-Guitar.com Take our survey!
×
Author
Difficulty
Tuning
intermediate
B F# B E G# C#
B F# B E G# C#


A: 1a-1b-1a-1c
----------------|-------------|--------------|-----------------|--------------|
---------10-----|-------------|--------------|-----------------|--------------|
------------7p0-|-------------|--------------|-----------------|--------------|
---0h7h8--------|-8p0-7p0-----|-10p0-7p0-----|-8p0-7p0---------|--------------|
----------------|---------8p0-|----------8p0-|---------8p0-3p0-|--------------|
-0--------------|-------------|--------------|-----------------|--------------|
                |             |              |
1               |a            |b             |c                                      


B: z-1-1a-1-1b-1-1a-1-1b (2x)
----|---------------|---------|------------------|----------------------------|
----|---------------|---------|------------------|----------------------------|
----|---------------|---------|------------------|----------------------------|
-8\-|---4p0-5p0-7p0-|-8p0-7p0-|-8p0-10p0-7p0-8p0-|----------------------------|
-8\-|---------------|---------|------------------|----------------------------|
-8\-|-0-------------|---------|------------------|----------------------------|
    |               |         |
z   |1              |a        |b                                                     


R guitar, 2nd time, same sequence:
----------------|---------|------------------|--------------------------------|
----------------|---------|------------------|--------------------------------|
----------------|---------|------------------|--------------------------------|
---8p0-9p0-10p0-|-9p0-8p0-|-8p0-10p0-7p0-8p0-|--------------------------------|
----------------|---------|------------------|--------------------------------|
-0--------------|---------|------------------|--------------------------------|
                                                                              

C: 1x3-2-1x3-2a (2x) [(4)=R guitar 1st time, (5)=alternates throughout]
|---------------------------------------------|-------------------------|-----|
|---------------------------------------------|-------------------------|-----|
|---------------------------------------------|-------------------------|-----|
|-----4-------4---------4-----4---------4-----|-----4-5-7-----8-----5h7-|-8\--|
|----(5)--------------------------------------|-------------------------|-8\--|
|-0-0(4)--0-0---0-0-0-0---0-0---0-0-0-0---0-0-|-0-0-------8-8---4-4-----|-8\--|
|                                             |                         |
|1                                            |2                        |a          

---
---
---
-0-
-0-
-0-  
                                                                              


*This is directly from Ben, figured I'd share it rather than keep it to myself, Cheers!
Suggest correction
comments
print report bad tab
guest
You may want to rate the tab now too:
select rating
Wanna post a correction for this tab? Suggest correction