Oops, an error
Loading. Please wait.

Brandend Avontuur Tab

2,254 views 1 this week
no commentswrite comment
1 2 3 4 5
3 more votes to show rating
add to favorites
×
Save as Personal and add changes to this tab that will be seen only by you. Learn more ›
×
You can save this tab as Personal to edit and correct it or add notes. All changes will be seen only by you. Learn more »
save as personal
new!
launch autoscroll
font size
0
reset
how to read this tab
guitar tuner
Autoscroll
slow
fast
+/-
esc
set tempo
stop
Author
-------------------------------------------------------------------------------
			 Brandend Avontuur - Clouseau
-------------------------------------------------------------------------------
Tabbed by: Jan Van Gulck
Email:     janvangulck@hotmail.com


Tuning: E A D G B e



Intro + Verse1:

    D              Dmaj7      G

e|--------2-----------(2)------------3------------------------|
B|-----3-----3-----2--------------3-----3--0--3--(0)-(3)-(5)--|
G|----------------------------0-------------------------------|
D|--0-----------0---------------------------------------------|
A|------------------------------------------------------------|
E|------------------------------------------------------------|




Pre Chorus:

    G         A		G	  A

e|--3-------------------3------------|
B|--3---------2---------3---------2--|
G|------------2-------------------2--|
D|------------2-------------------2--|
A|--2-------------------2------------|
E|--3-------------------3------------|




Chorus:

    D         E7        G

e|--3-------------------3--|
B|--2-------------------3--|
G|--3---------1------------|
D|-------------------------|
A|------------2---------2--|
E|----------------------3--|





Verse 2:

    D              Dmaj7      G

e|--------2-----------(2)------------3------------------------|
B|-----3-----3-----2--------------3-----3--0--3--(0)-(3)-(5)--|
G|----------------------------0-------------------------------|
D|--0-----------0---------------------------------------------|
A|------------------------------------------------------------|
E|------------------------------------------------------------|





Verse3:

    A		G	D	A		E7  G   D 

e|--------------3--------2--------------------------3---2---|
B|--2-----------3--------3------2-------------------3---3---|
G|--2--------------------2------2---------------1-------2---|
D|--2---------------------------2---------------------------|
A|--------------2-------------------------------2---2-------|
E|--------------3-----------------------------------3-------|




-------------------------------------------------------------------------------


Lyrics:


INTRO: 2X

VERSE 1: 4X

Langzaam komt ze dichterbij
ze bestelt een lach van mij
en ze kijkt me veelbetekenend aan

Ik herken die zwoele blik
van de nacht daarvoor en ik
ben de volgende die niet kan weerstaan

PRE CHORUS: 1X

En als muziek
fluistert ze de woorden 
veelbelovend en vertrouwd

CHORUS: 2X

Wij met zen twee
zijn geboren voor elkaar
een moment zonder gevaar
geen liefde enkel vuur

Ik ga met je mee
voor een nacht zonder verhaal
zonder vragen en moraal
een brandend avontuur

VERSE 2: 4X

Het maanlicht dansend om haar huid
ik kijk haar aan ze kleed zich uit
en ik verlies me in dit magische beeld
ze is een heks een goeie fee
Cleopatra Doris Day
en ze gelooft in elke rol die ze speelt

PRE CHORUS: 1X

En morgenvroeg 
fluistert ze de woorden
veelbelovend en vertrouwd

CHORUS: 2X

Wij met zen twee
zijn geboren voor elkaar
een moment zonder gevaar
geen liefde enkel vuur

Ik ga met je mee
voor een nacht zonder verhaal
zonder vragen en moraal
een brandend avontuur

VERSE 3: 1X

Ik vraag haar niet
naar de eenzaamheid
die haar ongetwijfeld bekruipt
Als zij alleen de bezetenheid
van de duisternis insluipt

CHORUS: 10X

Wij met zen twee 
zijn geboren voor elkaar
een moment zonder gevaar
een brandend avontuur

Het is een honger naar de jacht
die ze stilt om middernacht
een verlangen naar de eindeloze vrijheid

Heel haar leven is een zucht
daar genot in vogelvlucht
wat maakt het uit
ze is nu bij mij

Wij met zen twee
zijn geboren voor elkaar
een moment zonder gevaar
geen liefde enkel vuur

Ik ga met je mee 
voor een nacht zonder verhaal
zonder vragen en moraal
een brandend avontuur

Wij met zen twee 
zijn geboren voor elkaar
een moment zonder gevaar
geen liefde enkel vuur

Ik ga met je mee 
voor een nacht zonder verhaal
zonder vragen en moraal
een brandend avontuur

Wij met z'n 2
Suggest correction
Give kudos to tab author, rate the tab!
1 2 3 4 5
comments
print report bad tab
guest
You may want to rate the tab now too:
select rating
Wanna post a correction for this tab? Suggest correction