Oops, an error
Loading. Please wait.

Ey Der Regen Chords

version 2
version 2

Whole song

31 views 3 this week
no commentswrite comment
1 2 3 4 5
3 more votes to show rating
add to favorites
launch autoscroll
font size
0
reset
transpose
0
reset
simplify chords
display chords
guitar tuner
Autoscroll
slow
fast
+/-
esc
set tempo
stop
Help us to improve Ultimate-Guitar.com Take our survey!
×
Author
Difficulty
novice
The intro basically looks like the following pattern:

[Intro]
   Em                       Em                      Em                      Em
                                                                                       Immer wenn es
e|---------------------------------------------------------------------------------------------------|
B|---------------------------------------------------------------------------------------------------|
G|---------------------------------------------------------------------------------------------------|
D|---------------------------------------------------------------------------------------------------|
A|--------5--5/7------------------5--5/7------------------5--5/7------------------5--5/7-------------|
E|-0--0---------------------0--0--------------------0--0--------------------0--0---------------------|
  
   Em                       Em                      Em                      Em
   regnet.                             Immer wenn es regnet                            Immer wenn es
e|---------------------------------------------------------------------------------------------------|
B|---------------------------------------------------------------------------------------------------|
G|---------------------------------------------------------------------------------------------------|
D|---------------------------------------------------------------------------------------------------|
A|--------5--5/7------------------5--5/7------------------5--5/7------------------5--5/7-------------|
E|-0--0---------------------0--0--------------------0--0--------------------0--0---------------------|

   C                        C                        D                       C
   regnet,   wie 'n kleiner Applaus.   Immer wenn es regnet                             dada   dadada
e|---------------------------------------------------------------------------------------------------|
B|---------------------------------------------------------------------------------------------------|
G|---------------------------------------------------------------------------------------------------|
D|---------------------------------------------------------------------------------------------------|
A|--------5--5/7------------------5--5/7------------------7--7/9------------------5--5/7-------------|
E|-0--0---------------------0--0--------------------2--2--------------------0--0---------------------|
  
    C                        D                       C                       C
                dada   dadada                                 dada   dadada            dada   dadada
e|---------------------------------------------------------------------------------------------------|
B|---------------------------------------------------------------------------------------------------|
G|---------------------------------------------------------------------------------------------------|
D|---------------------------------------------------------------------------------------------------|
A|--------5--5/7------------------7--7/9------------------5--5/7------------------5--5/7-------------|
E|-0--0---------------------2--2--------------------0--0--------------------0--0---------------------|

    D                        C                       C                       D
    immer wenn es regnet, uh            dada   dadada            dada   dadada
e|---------------------------------------------------------------------------------------------------|
B|---------------------------------------------------------------------------------------------------|
G|---------------------------------------------------------------------------------------------------|
D|---------------------------------------------------------------------------------------------------|
A|--------7--7/9------------------5--5/7------------------5--5/7------------------7--7/9-------------|
E|-2--2---------------------0--0--------------------0--0--------------------2--2---------------------|

[Verse]
C                                                      D
  Verdammt, Jetzt sitzt du traurig hier und sagst kein Wort
C                                            D
  Und mir fällt überhaupt nix ein, alles ist fort.
C                                                             D
  Ich glaub, du an meiner Stelle, wüsstest genau was zu sagen wär,
C                                                               D         C
  Um mich etwas aufzumuntern, doch ich find alles blöd und grad verkehrt.

[Chorus]
G                               A7
Ey, der Regen ist wie'n kleiner Applaus,
              C                  G         F
Komm mal kurz raus und lass dich feiern!
G                                A7
Ey, der Regen ist wie'n tobendes Haus,
                           C                   G
Ich glaub das muntert dich auf, komm lass dich feiern.

[Verse]
Em                                                  D
  Du meinst: wer hätte das gedacht, dich mal so zu sehn?
C                                                   D
  Und weinst und lachst zur gleichen Zeit über dein Problem.
C                                                    D
(doch ich bin jetzt hier) und hab etwas, dass dich ablenkt,
C                                                    D       C
(auch wenn du wieder) für dich allein bist und daran denkst.

[Chorus]
G                               A7
Ey, der Regen ist wie'n kleiner Applaus,
              C                  G         F
Komm mal kurz raus und lass dich feiern!
G                                A7
Ey, der Regen ist wie'n tobendes Haus,
                           C                   G
Ich glaub das muntert dich auf, komm lass dich feiern.

[Bridge]
D                     G
       Komm lass dich feiern
D                     G
       Komm lass dich feiern
D                     G         D      C
       Komm lass dich feiern

[Chorus]
G                               A7
Ey, der Regen ist wie'n kleiner Applaus,
              C                  G         F
Komm mal kurz raus und lass dich feiern!
G                                A7
Ey, der Regen ist wie'n tobendes Haus,
                           C                   G         F
Ich glaub das muntert dich auf, komm lass dich feiern.
G                               A7
Ey, der Regen ist wie'n kleiner Applaus,
              C                     G      F
Komm doch mal raus, Komm lass dich feiern!

[Outro]
G   F G   F C   D C    F G


************************************
| /   Slide up
************************************
Suggest correction
Give kudos to tab author, rate the tab!
1 2 3 4 5
comments
print report bad tab
guest
You may want to rate the tab now too:
select rating
Wanna post a correction for this tab? Suggest correction