Oops, an error
Loading. Please wait.

Gewinner tab

version 2
version 2

Whole song

Interactive

by Clueso
11,261 views 3 this week
1 commentread comment
1 2 3 4 5
2 more votes to show rating
add to favorites
×
Save as Personal and add changes to this tab that will be seen only by you. Learn more ›
×
You can save this tab as Personal to edit and correct it or add notes. All changes will be seen only by you. Learn more »
launch autoscroll
font size
0
reset
how to read this tab
guitar tuner
edit
Autoscroll
slow
fast
+/-
esc
set tempo
stop
               Clueso-Gewinner

Verse:
  a                         F                        
e|--------------0----------|-------------0----------|
B|--------1-----------1----|-------1-----------1----|
G|-----2-----2-----2-----2-|----2-----2-----2-----2-|
D|-------------------------|-3----------------------|
A|--0----------------------|------------------------|
E|-------------------------|------------------------|


  C                        C
e|-------------0----------|-------------0----------|
B|-------1-----------1----|-------1-----------1----|
G|----0-----0-----0-----0-|----0-----0-----0-----0-|
D|------------------------|------------------------|    8X
A|-3----------------------|-3----------------------|
E|------------------------|------------------------|


Chourus:
e|------------------------|
B|------------------------|
G|------------------------|
D|------------------------|               8X
A|-3--5--3--3--3--5--3--2-|
E|------------------------|

Verse: 7X

Chorus: 11X

Outro:
e|------------------------|
B|------------------------|
G|------------------------|
D|------------------------|
A|-3--------5--------3----|
E|------------------------|
 


Suggest correction
Creating personal tab
Creating personal tab
You can edit any tab online and save it as your Personal.

You can edit, replace or remove any tab part or add personal notes – all changes will be seen only by you.

Personal tabs can be accessed anytime from any device, even offline.
Learn more »
Give kudos to tab author, rate the tab!
1 2 3 4 5
comments
print report bad tab
1 comment total.
+1 reply
mäxchen 10 Sep 06, 2009 11:42 AM

fast perfekt, aber ich würde das F komplett spieln also mit barre und auf der hohen e-saite im 1. bund greifen.
und beim 2. C die a saite im 2. statt im 3.
aber das zupfmuster ist perfekt :)
danke

guest
Wanna post a correction for this tab? Suggest correction