Oops, an error
Loading. Please wait.

A Quick Death In Texas tab

by Clutch
8,195 views 87 this week
3 commentsread comments
1 2 3 4 5
x 11
add to favorites
×
Save as Personal and add changes to this tab that will be seen only by you. Learn more ›
×
You can save this tab as Personal to edit and correct it or add notes. All changes will be seen only by you. Learn more »
launch autoscroll
font size
0
reset
how to read this tab
guitar tuner
edit
Autoscroll
slow
fast
+/-
esc
set tempo
stop
Author
Difficulty
CLUTCH
"A Quick Death in Texas"
From the album "Psychic Warfare" (2015)

Standard Tuning
Tempo = 94 bpm
Light Swing Feel

 VERSE RIFF                                 
e|--------------------|--------------------|
B|--------------------|--------------------|  
G|--------------------|--------------------| 
D|---------2--------2-|---------2--------2-|  
A|--------------------|--------------------|  
E|-0---0-3----3p0-3---|-0---0-3----3p0-3---|

 RIFF VARIATION (played during second verse)
e|--------------------|--------------------|
B|--------------------|--------------------|  
G|--------------------|--------------------| 
D|-------5-2--0---0-2-|-------5-2--0---0-2-|  
A|--------------2-----|--------------2-----|  
E|-0---0--------------|-0---0--------------|

 LEAD FILL (clean guitar)
e|-----12----------------|
B|--15-12----------------|
G|--14------14\----------|
D|-----------------------|
A|-----------------------|
E|-----------------------|

 PRE-CHORUS
e|-----------------|-----------------|
B|-----------------|-----------------|
G|-----------------|-----------------|
D|-----------------|-----------------|
A|-----------------|-----------------|
E|-5-5-5-5-5-5-5-5-|-5-5-5-5-5-3-3-3-|

 CHORUS
e|----------------------|--------------------------------|
B|----------------------|--------------------------------|
G|----------------------|--------------------------------|
D|-------------5-5------|---------------5-5--------------|
A|---7-5-7-7-7-----7----|-----7-5-7-7-7-----7------------|
E|-0------------------0-|-(0)-----------------7-5-3-0----|

e|-------------------------|------------------------------|
B|-------------------------|------------------------------|
G|-------------------------|------------------------------|
D|-------------5-5-------5-|-(5)--------------------------|
A|---7-5-7-7-7-----7-(7)---|-----7-5-7-5---5--------------|
E|-0-----------------------|-------------7---7-5-7-5-3----|

 LEAD FILL AFTER CHORUS (clean guitar)
e|-----------------------|
B|-15--------------------|
G|-----14b14.5p12--------|
D|------------------14---|
A|-----------------------|
E|-----------------------|

 RIFF AFTER CHORUS (with octave effect)
e|--------------||-----------------|-------------------------------||
B|--------------||o----------------|------------------------------o||
G|--------------||-----------------|-------------------------------||
D|----------0-2-||--(2)--------2---|-2-0-------------------0-2-----||
A|--------2-----||o------0-1-2-----|-----2-1-0-2---------2--------o||
E|--------------||-----------------|--------------3-0--------------||

 FINAL SECTION
e|----------------------|---------------------------------|
B|----------------------|---------------------------------|
G|----------------------|---------------------------------|
D|-------------5-5------|---------------5-5----7b8r7-5----|
A|---7-5-7-7-7-----7----|-----7-5-7-7-7-----7----------7--|
E|-0------------------0-|-(0)-----------------------------|

            
            
Suggest correction
Creating personal tab
Creating personal tab
You can edit any tab online and save it as your Personal.

You can edit, replace or remove any tab part or add personal notes – all changes will be seen only by you.

Personal tabs can be accessed anytime from any device, even offline.
Learn more »
comments
print report bad tab
3 comments total.
-1 reply
nytattoo609 10 Oct 02, 2016 12:31 PM

this tab is horrible

-1 reply
nytattoo609 10 Oct 02, 2016 12:32 PM

this tab is horrible

guest
You may want to rate the tab now too:
select rating
Wanna post a correction for this tab? Suggest correction