Oops, an error
Loading. Please wait.

A Shogun Named Marcus Tab

version 1
version 1

Whole song

Interactive

by Clutch
5,562 views 12 this week
2 commentsread comments
1 2 3 4 5
x 6
add to favorites
launch autoscroll
font size
0
reset
how to read this tab
guitar tuner
×
Best way to learn
"A Shogun Named Marcus"
Autoscroll
slow
fast
+/-
esc
set tempo
stop
#----------------------------------PLEASE NOTE---------------------------------#
#This file is the author's own work and represents their interpretation of the #
#song. You may only use this file for private study, scholarship, or research. #
#------------------------------------------------------------------------------##
From: Burning.Inside@f929.n273.z1.fidonet.org (Burning Inside)
Date: 05 Dec 95 22:41:17 -0500
Subject: TAB: "A Shogun Named Marcus" by Clutch


From: burning.inside@f929.n273.z1.fidonet.org

A Shogun Named Marcus           by Clutch
                                from the album "Transnational Speedway League"
                                words and music by Tim Sult, Dan Maines,
                                        Neil Fallon, and Jean-Paul Gaster
                                tabbed by Tom Mallon

Riff 1
E ----------------------------------------------------|
B ----------------------------------------------------|
G ----------------------------------------------------|
D -------------------------------5--------------------|
A -------------------------------4--------------------|
E -0-0-5p0-4p0-0-0-4p0-3p0-3p0---3--------------------|

Riff 2
E ----------------------------------------------------|
B ----------------------------------------------------|
G ------------------------9-10-11---------------------|
D ------------------------8-9--10---------------------|
A ------------------------7-8--9----------------------|
E -0-0-0-0-0-0-0-0-0-0-0------------------------------|

Riff 3
E ----------------------------------------------------|
B ----------------------------------------------------|
G ----------------------------------------------------|
D -2-2-2-2--5-5-5-5-6-6-6-6-6-6-6---7-7-7-------------|
A -2-2-2-2--5-5-5-5-6-6-6-6-6-6-6---7-7-7-------------|
E -0-0-0-0--3-3-3-3-4-4-4-4-4-4-4---5-5-5-------------|
Suggest correction
comments
print report bad tab
2 comments total.
0 reply
djerzinski 189 Jun 27, 2009 02:50 AM

I think this is the way you should play it:

Riff 1
E -------------------------------------------------|
B -------------------------------------------------|
G -------------------------------------------------|
D ----------------------------5--------------------|
A ----------------------------4--------------------|
E -0--5p0-4p0-0-0-4p0-3p0-3p0-3--------------------|

Riff 2
E ---------------------------------------------------------|
B ---------------------------------------------------------|
G ---------------------------------------------------------|
D ------------------------------8-9-10---------------------|
A ------------------------------7-8-9----------------------|
E -0-0-0-0--0-0-0-0--0-0-0-0--0----------------------------|

Bridge: E5

Riff 3
E -------------------------------------------------|
B -------------------------------------------------|
G -------------------------------------------------|
D -2-2-2-2--5-5-5-5--6-6-6-6--6-6-6-7--------------|
A -2-2-2-2--5-5-5-5--6-6-6-6--6-6-6-7--------------|
E -0-0-0-0--3-3-3-3--4-4-4-4--4-4-4-5--------------|

0 reply
joemredwine75 10 Nov 29, 2015 10:20 AM

Riff 1
E ----------------------------------------------------|
B ----------------------------------------------------|
G ----------------------------------------------------|
D -------------------------------4--------------------|
A -------------------------------3--------------------|
E -0-0-5p0-4p0-0-0-4p0-3p0-3p0---2--------------------|

give that a try... close

guest
You may want to rate the tab now too:
select rating
Wanna post a correction for this tab? Suggest correction