Oops, an error
Loading. Please wait.

Abraham Lincoln bass

version 1
version 1

Whole song

Interactive

by Clutch
157 views 3 this week
no commentswrite comment
1 2 3 4 5
3 more votes to show rating
add to favorites
×
Save as Personal and add changes to this tab that will be seen only by you. Learn more ›
×
You can save this tab as Personal to edit and correct it or add notes. All changes will be seen only by you. Learn more »
launch autoscroll
font size
0
reset
guitar tuner
edit
Autoscroll
slow
fast
+/-
esc
set tempo
stop
-------------------------------------------------------------------------------
                             Abraham Lincoln - Clutch
-------------------------------------------------------------------------------
Tabbed by: 790FX
Album: Strange Cousins From The West (2009)
Tuning: Drop D

Use a bit distortion for this song especially for the chorus.


Intro @ 0:17

     R   R   R
G|------------------|
D|------------------|
A|-5---5---5---3~---| x4
D|-0---0---0--------|


Pre Verse @ 0:34

G|-----------------|-----------------|
D|-----------------|-----------------|
A|---5-3-5---5-3-5-|---5-3-5-3~------| x4
D|-0-------0-------|-0---------------|


Verse @ 0:51

G|-----------------|-----------------|
D|-----------------|-----------------|
A|---5-3-5---5-3-5-|---5-3-5-3~------| x8
D|-0-------0-------|-0---------------|


Chorus @ 1:27
               R   R
G|-------------------|--------------------|-------------------|--------------------|
D|-------5-3---------|--------3-----------|-------5-3---------|--------------------|
A|-----------5---3---|-3h5~-----5-3-0-----|-----------5---3---|-3h5~-----------3---| x2
D|-0-----------------|----------------5-3-|-0-----------------|--------5---7-------|


Repeat 
       @ 1:45 Pre Verse/Verse x12
       @ 2:36 Chorus x2


Bridge @ 2:54                                                          __
                     s s s s s s s s s s s s s s   s s s s s s s s       \
G|-----------------|-----------------------------|-----------------|      \
D|-----------------|-7-7-7-7-7-7-7-7-7-7-7-7-7-7-|-7-7-7-7-7-7-7-7-|       \ 
A|-0---3---5-------|-0-0-0-0-0-0-0-0-0-0-0-0-0-0-|-0-0-0-0-0-0-0-0-|        \
D|-----------------|-----------------------------|-----------------|         \
                                                                              | x2
                     s s s s s s s s s s s s s s   s s s s s s s s           / 
G|-----------------|-9-9-9-9-9-9-9-9-9-9-9-9-9-9-|-9-9-9-9-9-9-9-9-|        / Oktave and A-chord 
D|-----------------|-7-7-7-7-7-7-7-7-7-7-7-7-7-7-|-7-7-7-7-7-7-7-7-|       /  are optional! Instead 
A|-0---3---5-------|-0-0-0-0-0-0-0-0-0-0-0-0-0-0-|-0-0-0-0-0-0-0-0-|      /   just play straight As.
D|-----------------|-----------------------------|-----------------|   __/


Repeat
       @ 3:29 Intro           x4
       @ 3:46 Pre Verse/Verse x8
       @ 4:20 Chorus          x2
       @ 4:38 Bridge section  x2


Solo/Outro @ 5:11

               R   R
G|-------------------|------------------|
D|-------5-3---------|-----------3------|
A|-5---------5---3---|-3h5~-------------| x10
D|-0-----------------|-----------3------|


| h  hammer-on
| ~  vibrato
| s  sixteenth note
| R  rest
===============================================================================

            
            
Suggest correction
Creating personal tab
Creating personal tab
You can edit any tab online and save it as your Personal.

You can edit, replace or remove any tab part or add personal notes – all changes will be seen only by you.

Personal tabs can be accessed anytime from any device, even offline.
Learn more »
Give kudos to tab author, rate the tab!
1 2 3 4 5
comments
print report bad tab
guest
You may want to rate the tab now too:
select rating
Wanna post a correction for this tab? Suggest correction