Oops, an error
Loading. Please wait.

Bacchanal bass

by Clutch
430 views 3 this week
no commentswrite comment
1 2 3 4 5
3 more votes to show rating
add to favorites
×
Save as Personal and add changes to this tab that will be seen only by you. Learn more ›
×
You can save this tab as Personal to edit and correct it or add notes. All changes will be seen only by you. Learn more »
launch autoscroll
font size
0
reset
guitar tuner
edit
Autoscroll
slow
fast
+/-
esc
set tempo
stop
intro - repeat this pattern 16 times - the two intro riffs play againbefore the bridge
G|--------------------|
D|--2---2-2-2-2-2-2---|
A|--------------------|
E|--------------------|

intro variation - after repeating intro pattern 16 times, play this patternuntil the 
just ride the note with a steady ryhthm
G|----------------------------------|
D|--2-2-2-2-2-2-2-2-2-2-2-2-2-2-2-2-|
A|----------------------------------|
E|----------------------------------|

fill 1:  play this fill right before the verse starts
G|------------------|
D|------------------|
A|--3-3-3-3-3-2-1---|
E|------------------|

verse - just alternate this riff with with the fill 1 riff.listen to the song, you'll 
what to do.  I like to play this riff using hammer-ons and pull-offs.
G|--------------------------------------------------|
D|--------------------------------------------------|
A|--------------------------------------------------|
E|--0-0---0-0---0-0-2-3-2-0-2-3-2-0-2-3-2-0-2-3-2-0-|

chorus - "if you provide..."  This riff I'm not too sure of.  Please let me know if you 
errors.
G|----------------------------------------|
D|--2-------------------------------------|
A|------------------2-------2-1-------0---|
E|--------------------------------------4-|

bridge
G|----------------------------------|
D|----------------------------------|
A|----------------------------------|
E|--0-0-0-0-0---0-0---0-0---0-0-0---|

bridge outro "Bacchanal!" - again, not 100 percent sure on this one
G|----------------------------------|
D|--2---2-2-2-----------------------|
A|--------------2-2-2-2-2-2-2-2-1-1-|
E|----------------------------------|
Suggest correction
Creating personal tab
Creating personal tab
You can edit any tab online and save it as your Personal.

You can edit, replace or remove any tab part or add personal notes – all changes will be seen only by you.

Personal tabs can be accessed anytime from any device, even offline.
Learn more »
Give kudos to tab author, rate the tab!
1 2 3 4 5
comments
print report bad tab
guest
You may want to rate the tab now too:
select rating
Wanna post a correction for this tab? Suggest correction