Oops, an error
Loading. Please wait.

Basket Of Eggs Bass Tab

1,090 views 1 this week
1 commentread comment
1 2 3 4 5
please rate
add to favorites
launch autoscroll
font size
0
reset
guitar tuner
Autoscroll
slow
fast
+/-
esc
set tempo
stop
Help us to improve Ultimate-Guitar.com Take our survey!
×
Author
Difficulty
novice
-------------------------------------------------------------------------------
			    BASKET OF EGGS - Clutch
-------------------------------------------------------------------------------

Tabbed By : Brando915
e-mail: brando915@yahoo.com

Tuning: Standard

This is the main riff that's played throughout the song. Listen to the song to get the 
timing down.

Main Riff
G|---------------------------------------------------------------------|
D|---------------------------------------------------------------------|
A|-4--44-4--44-4/7-7------------/7-7-------------2-2--2h4-4-4--2-2h4-4-|
E|-------------------2-22-2-222-----2-22-2--22-2-----------------------|

0:00 - guitar intro (no bass)
0:47 - main riff
1:19 - pause
1:51 - main riff
2:55 - pause
3:27 - main riff until song fades out


| /  slide up
| \  slide down
| h  hammer-on
| p  pull-off
| ~  vibrato
| +  harmonic
| x  Mute note
===============================================================================
Suggest correction
Give kudos to tab author, rate the tab!
1 2 3 4 5
comments
print report bad tab
1 comment total.
0 reply
790FX 717 wrote on December 21 2015, 07:03 pm

Great tab. I think the bass plays also that little part around 0:38 and so on:
G|-9-9b---4---|
D|----------4-|
A|------------|
E|------------|
You can hear these high notes on bass if you listened closely.

guest
You may want to rate the tab now too:
select rating
Please do not post tabs as comments. Select "correction" instead!