Oops, an error
Loading. Please wait.

Binge And Purge Bass Tab

1,532 views 1 this week
no commentswrite comment
1 2 3 4 5
accurate
x 3
add to favorites
launch autoscroll
font size
0
reset
guitar tuner
Tab Pro tools
  • play this tab
  • loop segment
  • change instrument
  • show fretboard
  • metronome
×
Best way to learn
"Binge And Purge"
Autoscroll
slow
fast
+/-
esc
set tempo
stop
Contributor
intro
G|----------------------------------|
D|----------------------------------|
A|----------------------------------|
E|--2---2---2---0-2---2---0-5-------|

verse - pretty much the same as intro, with one extra note
G|----------------------------------|
D|----------------------------------|
A|----------------------------------|
E|--2---2---2---0-2---2-2-0-5-------|

fill 1
G|----------------------------------|
D|----------------------------------|
A|----------------------------------|
E|--0-0-0-0-0-0-0-0-0-0-0-0-0-0-0-0-|

fill 2
G|------------------|
D|------------------|
A|------------------|
E|--2---0---5---3---|

the heavy part:fill 3
G|---------------|
D|---------------|
A|---------------|
E|--7-6--5--6-7--|

main ryhthm (repeats - I'm not sure if he plays the muted notes, but I like the way it 
when I do, so... it's up to you.)
G|------------------------------|
D|------------------------------|
A|------------------------------|
E|--0--x-x-0--x-x-x-x-0--0--x-x-|

variation 1
G|-------------------------------|
D|-------------------------------|
A|------------------5-5-5--5-5-5-|
E|--0--x-x-0--x-x-0--------------|

variation 2
G|------------------------------|
D|------------------------------|
A|--7------5--------------------|
E|----------------7-6--5--6-7---|

variation 3
G|------------------------------|
D|------------------------------|
A|------------------------------|
E|--0--x-x-0--x-x-7-6--5--0-3---|
comments
We did not receive enough feedback on this tab! Please rate:
print report bad tab
1 2 3 4 5
I want to post or [tab]
guest
You may want to rate the tab now too:
select rating
Please do not post tabs as comments. Select "correction" instead!