Oops, an error
Loading. Please wait.

Binge And Purge Tab

version 2
version 2

Whole song

2,419 views 3 this week
1 commentread comment
1 2 3 4 5
excellent!
x 3
add to favorites
launch autoscroll
font size
0
reset
how to read this tab
guitar tuner
Autoscroll
slow
fast
+/-
esc
set tempo
stop
Help us to improve Ultimate-Guitar.com Take our survey!
×
Difficulty
intermediate
i noticed that all the tabs for this song sucked in a big way. 
heres my contribution to help reconcile the situation...


intro
[--------]  [------------------------------]
[--------]  [------------------------------]
[--------]  [------------------------------]
[--------]  [------------------------------]
[--------]  [------------------------------]
[--2~~~~~]1x[--0h5--2~~~~~~--0h5--2~~~~~~~~]4x

main riff
[---------------------------]
[---------------------------]
[------------------------2--]
[--4-4-4-4-4--2-4--4-4-2-2--]
[--4-4-4-4-4--2-4--4-4-2-0--]
[--2-2-2-2-2--0-2--2-2-0----]x4

then this again 
[--------]  [------------------------------]
[--------]  [------------------------------]
[--------]  [------------------------------]
[--------]  [------------------------------]
[--------]  [------------------------------]
[--2~~~~~]1x[--0h5--2~~~~~~--0h5--2~~~~~~~~]2x

Perhaps its just the way the light falls, 
but everything looks like a target to me.
And i dont know where the gun is, 
but im certain that its pointed at me.

fill 1
[-----------------]
[-----------------]
[-----------------]
[-4-4-4-4-4-4-4-4-]
[-4-4-4-4-4-4-4-4-]
[-2-2-2-2-2-2-2-2-]x2

which leads right into this part again
[--------]  [------------------------------]
[--------]  [------------------------------]
[--------]  [------------------------------]
[--------]  [------------------------------]
[--------]  [------------------------------]
[--2~~~~~]1x[--0h5--2~~~~~~--0h5--2~~~~~~~~]2x

And in the jungle wretched jungle, 
they say the lion eats tonight.
And all around it is a Colosseum, 
dripping with a voracious appetite.

I said heyyyyyyy there fella, whose soul are you tormenting now?
Heyyyyyyyy there fella, whose soul are you tormenting now?
[---------------------------]
[---------------------------]
[------------------------2--]
[--4-4-4-4-4--2-4--4-4-2-2--]
[--4-4-4-4-4--2-4--4-4-2-0--]
[--2-2-2-2-2--0-2--2-2-0----]x8

fill 2
[------------------]
[------------------]
[----------2-------]
[--4---2---2---5---]
[--4---2---0---5---]
[--2---0-------3---]x1

I said heyyyyyyy there fella, whose soul are you tormenting now?
Heyyyyyyyy there fella, whose soul are you tormenting now?
[---------------------------]
[---------------------------]
[------------------------2--]
[--4-4-4-4-4--2-4--4-4-2-2--]
[--4-4-4-4-4--2-4--4-4-2-0--]
[--2-2-2-2-2--0-2--2-2-0----]x4

fill 2 again
[------------------]
[------------------]
[----------2-------]
[--4---2---2---5---]
[--4---2---0---5---]
[--2---0-------3---]x1

and go right into this one again
[--------]  [------------------------------]
[--------]  [------------------------------]
[--------]  [------------------------------]
[--------]  [------------------------------]
[--------]  [------------------------------]
[--2~~~~~]1x[--0h5--2~~~~~~--0h5--2~~~~~~~~]2x

In the course of all the previous events, 
it is evident that somethings bound to happen. 
Come on rear your ugly head to me, 
I've got nothing to lose but my apathy.

The root of the problem has been isolated.
[-----------------]
[-----------------]
[-----------------]
[-----------------]
[-----------------]
[--0h5--2~~~~~~~~~]x1

The root of the problem has been isolated.
The root of the problem has been isolated.
The root of the problem has been isolated.
[-----------------]
[-----------------]
[-----------------]
[-------0~~~~~~~~~]
[-------0~~~~~~~~~]
[--0h5--0~~~~~~~~~]x1

fill 3
[---------------]
[---------------]
[--2------------]
[--2-4--2--4-5--]
[--0-4--2--4-5--]
[----2--0--2-3--]x1

Come on motherfucker, come on motherfucker, 
come on motherfucker lets throw down.
Come on motherfucker, come on motherfucker, 
come on motherfucker lets throw down.
[----------------------------]  [-----------------------------]
[----------------------------]  [-----------------------------]
[----------------------------]  [-----------------------------]
[-4--x-x-4--x-x-x-x-4--4--x-x]  [-4--x-x-4--x-x-4-2--2--2-2-2-]
[-4--x-x-4--x-x-x-x-4--4--x-x]  [-2--x-x-4--x-x-4-2--2--2-2-2-]
[-2--x-x-2--x-x-x-x-2--2--x-x]x3[-2--x-x-2--x-x-2-0--0--0-0-0-]x1

just try me, just try me, what are you waiting for?
come on motherfucker lets throw down,
come on motherfucker lets go.
[----------------------------]  [----------------------]
[----------------------------]  [----------------------]
[----------------------------]  [-4---2---2------------]
[-4--x-x-4--x-x-x-x-4--4--x-x]  [-2---2---2-4--2--4-5--]
[-4--x-x-4--x-x-x-x-4--4--x-x]  [-2---0---0-2--2--4-3--]
[-2--x-x-2--x-x-x-x-2--2--x-x]x3[-----------2--0--2-3--]x1

just rear your ugly fuckin head, i'll put it on a platter
just rear your ugly fuckin head, i'll put it on a platter
[----------------------------]  [-----------------------------]
[----------------------------]  [-----------------------------]
[----------------------------]  [-----------------------------]
[-4--x-x-4--x-x-x-x-4--4--x-x]  [-4--x-x-4--x-x-4-2--2--2-2-2-]
[-4--x-x-4--x-x-x-x-4--4--x-x]  [-2--x-x-4--x-x-4-2--2--2-2-2-]
[-2--x-x-2--x-x-x-x-2--2--x-x]x3[-2--x-x-2--x-x-2-0--0--0-0-0-]x1

so, 
come on motherfucker, come on motherfucker,
come on motherfucker lets throw down.
come on motherfucker, come on motherfucker,
come on motherfucker lets go.
[----------------------------]  [----------------------]
[----------------------------]  [----------------------]
[----------------------------]  [-4---2---2------------]
[-4--x-x-4--x-x-x-x-4--4--x-x]  [-2---2---2-4--2--4-5--]
[-4--x-x-4--x-x-x-x-4--4--x-x]  [-2---0---0-2--2--4-3--]
[-2--x-x-2--x-x-x-x-2--2--x-x]x3[-----------2--0--2-3--]x1

hey there, hey fella
[-------------------------]  [----------------------------]
[-------------------------]  [----------------------------]
[------------2------------]  [---------------2------------]
[-4--x-x-4---2-4--2--4-5--]  [-4--x-x-4------2-4--2--4-5--]
[-4--x-x-4---0-4--2--4-5--]  [-4--x-x-2------0-2--2--4-5--]
[-2--x-x-2-----2--0--2-3--]x1[-2--x-x-2--0-0---2--0--2-3--]x1

hey there, hey fella
[-------------------------]  [----------------------------]
[-------------------------]  [----------------------------]
[------------2------------]  [---------------2------------]
[-4--x-x-4---2-4--2--4-5--]  [-4--x-x-4------2-4--2--4-5--]
[-4--x-x-4---0-4--2--4-5--]  [-4--x-x-2------0-2--2--4-5--]
[-2--x-x-2-----2--0--2-3--]x1[-2--x-x-2--0-0---2--0--2-3--]x1

come on motherfucker, come on motherfucker,
come on motherfucker lets throw down.
come on motherfucker, come on motherfucker,
come on motherfucker lets go.
[----------------------------]  [-----------------------------]
[----------------------------]  [-----------------------------]
[----------------------------]  [-----------------------------]
[-4--x-x-4--x-x-x-x-4--4--x-x]  [-4--x-x-4--x-x-4-2--2--2-2-2-]
[-4--x-x-4--x-x-x-x-4--4--x-x]  [-2--x-x-4--x-x-4-2--2--2-2-2-]
[-2--x-x-2--x-x-x-x-2--2--x-x]x3[-2--x-x-2--x-x-2-0--0--0-0-0-]x1

ill make you wish that you'd never been born,
ill make you wish that you'd never been born,
ill make you wish that you'd never been born,
come on motherfucker lets go.
[----------------------------]  [----------------------]
[----------------------------]  [----------------------]
[----------------------------]  [-4---2---2------------]
[-4--x-x-4--x-x-x-x-4--4--x-x]  [-2---2---2-4--2--4-5--]
[-4--x-x-4--x-x-x-x-4--4--x-x]  [-2---0---0-2--2--4-3--]
[-2--x-x-2--x-x-x-x-2--2--x-x]x3[-----------2--0--2-3--]x1

hey there, hey fella
[-------------------------]  [----------------------------]
[-------------------------]  [----------------------------]
[------------2------------]  [---------------2------------]
[-4--x-x-4---2-4--2--4-5--]  [-4--x-x-4------2-4--2--4-5--]
[-4--x-x-4---0-4--2--4-5--]  [-4--x-x-2------0-2--2--4-5--]
[-2--x-x-2-----2--0--2-3--]x1[-2--x-x-2--0-0---2--0--2-3--]x1

hey there, hey fella
[-------------------------]  [----------------------------]  [---]
[-------------------------]  [----------------------------]  [---]
[------------2------------]  [---------------2------------]  [---]
[-4--x-x-4---2-4--2--4-5--]  [-4--x-x-4------2-4--2--4-5--]  [-4-]
[-4--x-x-4---0-4--2--4-5--]  [-4--x-x-2------0-2--2--4-5--]  [-4-]
[-2--x-x-2-----2--0--2-3--]x1[-2--x-x-2--0-0---2--0--2-3--]x1[-2-]end.


| /  slide up
| \  slide down
| h  hammer-on
| p  pull-off
| ~  vibrato
| +  harmonic
| x  Mute note
===============================================================================

there you go, a great song for kicking ass. i tried to make it as accurate 
as possible, so please rate and enjoy. any questions, comments, corrections, 
etc. feel free to email them directly to me. 

rick james- ganjaninjaman@gmail.com
Suggest correction
Give kudos to tab author, rate the tab!
1 2 3 4 5
comments
print report bad tab
1 comment total.
0 reply
Snil 10 wrote on January 27 2014, 09:33 am

Hey Rick great tab but the 3rd fill and the last part sounded a bit off to me. I am playing like this:

fill 3
[---------------]
[---------------]
[---------------]
[--9-7--7--8-9--]
[--9-7--7--8-9--]
[--7-5--5--6-7--]

...and the last part I prefer to plaing it like this.

[-------------------------]
[-------------------------]
[-------------------------]
[-4--x-x-4---9-7--5--2-5--]
[-4--x-x-4---9-7--5--2-5--]
[-2--x-x-2---7-5--3--0-3--]

guest
You may want to rate the tab now too:
select rating
Please do not post tabs as comments. Select "correction" instead!