Oops, an error
Loading. Please wait.

Bottoms Up Socrates tab

version 3
version 3

Whole song

by Clutch
95 views 1 this week
no commentswrite comment
1 2 3 4 5
3 more votes to show rating
add to favorites
×
Save as Personal and add changes to this tab that will be seen only by you. Learn more ›
×
You can save this tab as Personal to edit and correct it or add notes. All changes will be seen only by you. Learn more »
launch autoscroll
font size
0
reset
how to read this tab
guitar tuner
edit
Autoscroll
slow
fast
+/-
esc
set tempo
stop
Author
Difficulty
-------------------------------------------------------------------------------
                             Bottoms Up Socrates - Clutch
-------------------------------------------------------------------------------
Tabbed by:ZL1996

Tuning: Standard

e|---------------------------------------------------------------------------|
B|---------------------------------------------------------------------------|
G|---------------------------------------------------------------------------|
D|---------------------------------------------------------------------------|
A|--7-----10---12---------10—10--12------12--------------7-10--12----10-12---|
E|------------------12--------------12--------12---12-------------12---------|

e|---------------------------------------------------------------------------|
B|---------------------------------------------------------------------------|
G|---------------------------------------------------------------------------|
D|---------------------------------------------------------------------------|
A|---14----------------------------------------------------------------------|
E|12-------------------------------------------------------------------------|

e|---------------------------------------------------------------------------|
B|---------------------------------------------------------------------------|
G|---------------------------------------------------------------------------|
D|---------------------------------------------------------------------------|
A|--7-----10---12---------10—10--12------12--------------7-10--12----10-12---|
E|------------------12--------------12--------12---12-------------12---------|

Street urchins… saint in a glass box and march em’ around the block

e|---------------------------------------------------------------------------|
B|---------------------------------------------------------------------------|
G|---------------------------------------------------------------------------|
D|---------------------------------------------------------------------------|
A|---14----------------------------------------------------------------------|
E|12-------------------------------------------------------------------------|


e|---------------------------------------------------------------------------|
B|---------------------------------------------------------------------------|
G|---------------------------------------------------------------------------|
D|------------------------10-------------------------------------------------|
A|------------------10h12-----12p10h12—-10-10-12-12-14--------12p10---------|
E|--------------10----------------------8--8--10-10-12-----10------12p10h12--|

Words of a mad man
e|---------------------------------------------------------------------------|
B|---------------------------------------------------------------------------|
G|---------------------------------------------------------------------------|
D|---------------------------------------------------------------------------|
A|-10-10--12-12-14-----------------------------------------------------------|
E|-8- 8- 10- 10-12-----------------------------------------------------------|
Seek no bliss

e|---------------------------------------------------------------------------|
B|---------------------------------------------------------------------------|
G|---------------------------------------------------------------------------|
D|---------------------------------------------------------------------------|
A|--7-----10---12---------10—10--12------12--------------7-10--12----10-12---|
E|------------------12--------------12--------12---12-------------12---------|
Mason jars of petroleum







e|---------------------------------------------------------------------------|
B|---------------------------------------------------------------------------|
G|---------------------------------------------------------------------------|
D|----------------------7--5------------------------------5------------------|
A|----14-----------------------7--5------------------5-7-8--------------------|
E|-12----------------------------------8-5-3------5--8-------------------------|
Exactly what they’ll say:


e|---------------------------------------------------------------------------|
B|---------------------------------------------------------------------------|
G|---------------------------------------------------------------------------|
D|---------------------------------------------------------------------------|
A|--7--10--12-----10--12------14---------------------------------------------|
E|-------------12---------12-------------------------------------------------|
And when they… 

e|---------------------------------------------------------------------------|
B|---------------------------------------------------------------------------|
G|---------------------------------------------------------------------------|
D|------------------------10-------------------------------------------------|
A|------------------10h12-----12p10h12—--10-10-12-12-14--------12p10---------|
E|--------------10----------------------8--8--10-10-12-----10------12p10h12--|
Hanging on the


e|---------------------------------------------------------------------------|
B|---------------------------------------------------------------------------|
G|---------------------------------------------------------------------------|
D|---------------------------------------------------------------------------|
A|--10-10-12-12-14-----------------------------------------------------------|
E|--8--8--10—10-12-----------------------------------------------------------|

e|---------------------------------------------------------------------------|
B|---------------------------------------------------------------------------|
G|---------------------------------------------------------------------------|
D|------------------------10-------------------------------------------------|
A|------------------10h12-----12p10h12—--10-10-12-12-14--------12p10---------|
E|--------------10-----------------------8--8--10-10-12-----10------12p10h12-|
No use for the poet


e|---------------------------------------------------------------------------|
B|---------------------------------------------------------------------------|
G|---------------------------------------------------------------------------|
D|---------------------------------------------------------------------------|
A|--10-10-12-12-14-------------------------------------------------------|
l
E|--8--8--10—10-12----------------------------------------------------------|

e|---------------------------------------------------------------------------|
B|---------------------------------------------------------------------------|
G|---------------------------------------------------------------------------|
D|---------------5-------------5-------------5--------------5----------------|
A|---------5h7h8---------5h7h8---------5h7h8----------5h7h8------------------|
E|----5h8------------5h8-----------5h8------------5h8------------------------|

e|---------------------------------------------------------------------------|
B|---------------------------------------------------------------------------|
G|---------------------------------------------------------------------------|
D|---------------------------------------------------------------------------|
A|-7p5-----------3p0---------------7p5-----------3p0-------------------------|
E|------8p5h8p5-------8p5h8p5-----------8p5h8p5--------8p5h8p5---------------|
X-ray vision



e|---------------------------------------------------------------------------|
B|---------------------------------------------------------------------------|
G|---------------------------------------------------------------------------|
D|---------------------------------------------------------------------------|
A|--7p5---------3p0------------7p5---------3p0--------------------------------|
E|------8p5h8p5--------8p5h8p5-----8p5h8p5-------8p5h8p5-------5 ~ ----------
|
e|---------------------------------------------------------------------------|
Hemlock straight up

e|--(8-7-5)—8p7p5-7b-------(8-7-5)—-7B-7p5----5b---5b--5---5b---5b---5b------|                 TRILL                  TRILL
B|---------------------------------------------------------------------------|
G|---------------------------------------------------------------------------|
D|---------------------------------------------------------------------------|
A|---------------------------------------------------------------------------|
E|---------------------------------------------------------------------------|SOLO

e|---------------------------------------------------------------------------|
B|---------------------------------------------------------------------------|
G|---------------------------------------------------------------------------|
D|---------------------------------------------------------------------------|
A|---------------------------------------------------------------------------|
E|--6p5p3—5b--5p3h5p3--------------------------------------------------------|
(SOLO)
e|---------------------------------------------------------------------------|
B|---------------------------------------------------------------------------|
G|---------------------------------------------------------------------------|
D|---------------5-------------5-------------5--------------5----------------|
A|---------5h7h8---------5h7h8---------5h7h8----------5h7h8------------------|
E|----5h8------------5h8-----------5h8------------5h8------------------------|
(SOLO)

e|---------------------------------------------------------------------------|
B|---------------------------------------------------------------------------|
G|---------------------------------------------------------------------------|
D|---------------------------------------------------------------------------|
A|------5~ --7~ -------------------------------------------------------------|
E|--5~ ----------------------------------------------------------------------|

e|---------------------------------------------------------------------------|
B|---------------------------------------------------------------------------|
G|---------------------------------------------------------------------------|
D|------------------------10-------------------------------------------------|
A|------------------10h12-----12p10h12—--10-10-12-12-14--------12p10---------|
E|--------------10-----------------------8--8--10-10-12-----10------12p10h12-|
Hanging on the words

e|---------------------------------------------------------------------------|
B|---------------------------------------------------------------------------|
G|---------------------------------------------------------------------------|
D|---------------------------------------------------------------------------|
A|-10-10--12-12-14-----------------------------------------------------------|
E|-8- 8- 10- 10-12-----------------------------------------------------------|
In the abyss 

e|---------------------------------------------------------------------------|
B|---------------------------------------------------------------------------|
G|---------------------------------------------------------------------------|
D|------------------------10-------------------------------------------------|
A|------------------10h12-----12p10h12—--10-10-12-12-14--------12p10---------|
E|--------------10-----------------------8--8--10-10-12-----10------12p10h12-|

No use for the poet


e|---------------------------------------------------------------------------|
B|---------------------------------------------------------------------------|
G|---------------------------------------------------------------------------|
D|---------------------------------------------------------------------------|
A|-10-10--12-12-14-----------------------------------------------------------|
E|-8- 8- 10- 10-12-----------------------------------------------------------|
Seek no bliss

e|---------------------------------------------------------------------------|
B|---------------------------------------------------------------------------|
G|---------------------------------------------------------------------------|
D|---------------------------------------------------------------------------|
A|-7p5-----------8p5---------------7p5-----------8p5-------------------------|
E|------8p5h8p5-------8p5h8p5-----------8p5h8p5--------8p5h8p5---------------|
X-ray vision

e|---------------------------------------------------------------------------|
B|---------------------------------------------------------------------------|
G|---------------------------------------------------------------------------|
D|---------------------------------------------------------------------------|
A|-7p5-----------8p5---------------7p5-----------8p5-------------------------|
E|------8p5h8p5-------8p5h8p5-----------8p5h8p5--------8p5h8p5---------------|
So bottoms up

e|---------------------------------------------------------------------------|
B|---------------------------------------------------------------------------|
G|---------------------------------------------------------------------------|
D|---------------------------------------------------------------------------|
A|-7p5-----------8p5---------------7p5-----------8p5-------------------------|
E|------8p5h8p5-------8p5h8p5-----------8p5h8p5--------8p5h8p5---------------|

Xray 
e|---------------------------------------------------------------------------|
B|---------------------------------------------------------------------------|
G|---------------------------------------------------------------------------|
D|---------------------------------------------------------------------------|
A|-7p5-----------8p5---------------7p5-----------8p5-------------------------|
E|------8p5h8p5-------8p5h8p5-----------8p5h8p5--------8p5h8p5------5-3-0----|
So bottoms up


************************************
I think that a wah and vibrato pedal are being used.
************************************

| /   slide up
| \   slide down
| h   hammer-on
| p   pull-off
| ~   vibrato
| +   harmonic
| x   Mute note
| b   Bend
| pb  Pre-bend
| br  Bend release
| pbr Pre-bend release
| brb Bend release bend

************************************

            
            
Suggest correction
Creating personal tab
Creating personal tab
You can edit any tab online and save it as your Personal.

You can edit, replace or remove any tab part or add personal notes – all changes will be seen only by you.

Personal tabs can be accessed anytime from any device, even offline.
Learn more »
Give kudos to tab author, rate the tab!
1 2 3 4 5
comments
print report bad tab
guest
You may want to rate the tab now too:
select rating
Wanna post a correction for this tab? Suggest correction