Oops, an error
Loading. Please wait.

Burning Beard bass

version 1
version 1

Whole song

Interactive

by Clutch
5,620 views 1 this week
1 commentread comment
1 2 3 4 5
1 last vote to show rating
add to favorites
×
Save as Personal and add changes to this tab that will be seen only by you. Learn more ›
×
You can save this tab as Personal to edit and correct it or add notes. All changes will be seen only by you. Learn more »
launch autoscroll
font size
0
reset
guitar tuner
edit
Autoscroll
slow
fast
+/-
esc
set tempo
stop
This song is very simple, and catchy too! Thats what Clutch is all about

h = Hammer-on
/ = Slide to

Intro and Main riffs
         h  h         h  h         h  h
G-------------------------------------------------------|
D-------------------------------------------------------|
A------------------------------------------10-10--10/-8-|
D-0--0-0-10-12-0--0-0-10-12-0--0-0-10-12-0--------------| x?

Riffs are x4

Chorus
This can be tricky because the notes played are far appart, this is what I do:
D3 and A8 are the same note: F
G---------------------------------------------------------------|
D-------------------------------3-------------------------------|
A-8-5-3-5---3-5-----Silence-------5-3-5---3-5-----Silence-------|
D---------5---------Silence-------------5---------Silence-------|

That riff is played 4 times during the chorus

The ending is the chorus riff without the silence so:
G-----------------------------|
D-3-------------3-------------|
A---5-3-5---3-5---5-3-5---3-5-|
D---------5-------------5-----|

            
            
Suggest correction
Creating personal tab
Creating personal tab
You can edit any tab online and save it as your Personal.

You can edit, replace or remove any tab part or add personal notes – all changes will be seen only by you.

Personal tabs can be accessed anytime from any device, even offline.
Learn more »
Give kudos to tab author, rate the tab!
1 2 3 4 5
comments
print report bad tab
1 comment total.
0 reply
The 6th String 90 Dec 14, 2009 02:57 PM

the bass doesnt play that riff at the end of the chorus, it plays single ringing notes AND you forgot the whole ending.

guest
Wanna post a correction for this tab? Suggest correction