Oops, an error
Loading. Please wait.

Burning Beard tab

version 1
version 1

Whole song

Interactive

by Clutch
7,469 views 3 this week
3 commentsread comments
1 2 3 4 5
x 3
add to favorites
×
Save as Personal and add changes to this tab that will be seen only by you. Learn more ›
×
You can save this tab as Personal to edit and correct it or add notes. All changes will be seen only by you. Learn more »
launch autoscroll
font size
0
reset
how to read this tab
guitar tuner
edit
Autoscroll
slow
fast
+/-
esc
set tempo
stop
Clutch - Burning Beard
Tabbed by 'Shiftydoodaa'

Main Riff/Verse:

e|------------------------|
b|------------------------|
g|------------------------| x8
d|----------------5-5-5p3-|
a|--3h5--3h5--3h5---------|
d|-0----0----0------------|

Chorus:

e|------------------|
b|------------------|
g|------------------| x4
d|-5-3---3---3--3-5-|
a|-----5---5---5----|
d|------------------|

Main Riff 2/Verse 2:

e|---------------------------------------|
b|---------------------------------------|
g|---------------------------12-12-12p10-| x8
d|---------------------------------------|
a|---------------------------------------|
d|-0-10h12--0-10h12--0-10h12-------------|


Order of play:

MAIN RIFF 1/VERSE 1 x8

CHORUS              x4

MAIN RIFF 1/VERSE 1 x4

CHORUS              x4

MAIN RIFF 1/VERSE 1 x4

MAIN RIFF 2/VERSE 2 x8

END

            
            
Suggest correction
Creating personal tab
Creating personal tab
You can edit any tab online and save it as your Personal.

You can edit, replace or remove any tab part or add personal notes – all changes will be seen only by you.

Personal tabs can be accessed anytime from any device, even offline.
Learn more »
Give kudos to tab author, rate the tab!
1 2 3 4 5
comments
print report bad tab
3 comments total.
0 reply
XeNoCiDe730 131 Aug 05, 2007 10:18 AM

Hey the chorus part is tabbed in the wrong key. you're playing it a major second higher than how it's played. Its actually

D--3------------------------
A----5--3--5--3--5--0--3--5-
D---------------------------

and the main riff is missing the hammer on
h h h h h h
A-----0--3--5-------0--3--5------0--3--5--------------
D--0-----------0--------------0------------0---5-5-5-3

0 reply
XeNoCiDe730 131 Aug 05, 2007 10:20 AM

damn, the h's werent in the right position in that last comment...w/e just know that you hammer on the 3 and 5 fret on the A strings.

0 reply
XeNoCiDe730 131 Aug 05, 2007 10:21 AM

i meant missing the hammer on from the open string...your tab had the hammer on but not from the open string.

guest
You may want to rate the tab now too:
select rating
Wanna post a correction for this tab? Suggest correction