Oops, an error
Loading. Please wait.

Burning Beard tab

version 3
version 3

Whole song

Interactive

by Clutch
14,437 views 33 this week
4 commentsread comments
1 2 3 4 5
x 4
add to favorites
×
Save as Personal and add changes to this tab that will be seen only by you. Learn more ›
×
You can save this tab as Personal to edit and correct it or add notes. All changes will be seen only by you. Learn more »
launch autoscroll
font size
0
reset
how to read this tab
guitar tuner
edit
Autoscroll
slow
fast
+/-
esc
set tempo
stop
Tuning: D A D G B E

Intro/Verse:
     |--3--|    |--3--|    |--3-----------------|
e-----------------------------------------------|
b-----------------------------------------------|
g-----------------------------------------------|
d-----------------------------------------------|
a-----------------------------------------------|
d-0--0h10h12-0--0h10h12-0--0h10h12-0-5-5-5p3----|

Chorus:
e----------------------------------------------|
b----------------------------------------------|
g----------------------------------------------|
d-3--------------------------------------------|
a---5--5-3--5-3----3-5-------------------------|
d----------------5-----------------------------|

After the solo, which I'm not tabbing, just play the chorus but with no rest in between 
Then:
e----------------------|
b-6--------------------|
g---7--5-7--5-7----5-7-|
d----------------5-----|
a----------------------|
d----------------------|

It then goes back to Verse, then play this part over and over until the finish:
     |--3--|
e------------|
b------------|
g------------|
d------------|
a------------|
d-0--0h10h12-|

            
            
Suggest correction
Creating personal tab
Creating personal tab
You can edit any tab online and save it as your Personal.

You can edit, replace or remove any tab part or add personal notes – all changes will be seen only by you.

Personal tabs can be accessed anytime from any device, even offline.
Learn more »
comments
print report bad tab
4 comments total. Showing first comments.
0 reply
phil316k 10 Jan 18, 2011 02:53 AM

Anyone know what the 3's on the top line are for?



|--3--| |--3--| |--3-----------------|
e-----------------------------------------------|
b-----------------------------------------------|
g-----------------------------------------------|
d-----------------------------------------------|
a-----------------------------------------------|
d-0--0h10h12-0--0h10h12-0--0h10h12-0-5-5-5p3----|

+3 reply
phil316k 10 Jan 18, 2011 03:10 AM

Oh and I think the chorus should be different, instead of this:
Chorus:
e----------------------------------------------|
b----------------------------------------------|
g----------------------------------------------|
d-3--------------------------------------------|
a---5--5-3--5-3----3-5-------------------------|
d----------------5-----------------------------|

it should be this:

Chorus:
e----------------------------------------------|
b----------------------------------------------|
g----------------------------------------------|
d-3--------------------------------------------|
a---5--3-5--3-5----3-5-------------------------|
d----------------5-----------------------------|

0 reply
Mainer 959 Sep 11, 2011 07:24 AM

great tab, but yeah phil316k is right about the chorus. Random kickass tune, Clutch rules

guest
Wanna post a correction for this tab? Suggest correction