Oops, an error
Loading. Please wait.

Careful With That Mic Bass Tab

version 1
version 1

Whole song

Interactive

19 views 1 this week
no commentswrite comment
1 2 3 4 5
3 more votes to show rating
add to favorites
launch autoscroll
font size
0
reset
guitar tuner
Autoscroll
slow
fast
+/-
esc
set tempo
stop
Help us to improve Ultimate-Guitar.com Take our survey!
×
Author
Difficulty
novice
-------------------------------------------------------------------------------
                      Careful with that Mic - Clutch
-------------------------------------------------------------------------------
Tabbed by: 790FX
Album: Pure Rock Fury (2001)
Tuning: Standard

Use a bit of distortion for this song.


[Intro] @ 0:00

         e e   R   R   R     e e   R   R
G|-----|-------------------|--------------------|
D|-----|-------------------|--------------------|
A|-----|-------------------|--------------------| x4
E|-----|-6-4-6---6---6---4-|-6-4-6---6---6-4~---|



[Verse] @ 0:23

         e e   R   R   R     e e   R   R
G|-----|-------------------|--------------------|
D|-----|-------------------|--------------------|
A|-----|-------------------|--------------------| x6
E|-----|-6-4-6---6---6---4-|-6-4-6---6---6-4~---|



[Chorus] @ 0:55

       e e R     e e R       e e R               e e e e e e   e e e e       e e R
G|---------------------|-------------------|---------8-6-8-6-----------|-------------------|
D|---------------------|-------------------|-----------------8-6-------|-------------------|
A|---------------------|-------------------|---------------------8-6-4-|-------------------|
E|-6---6-6---6---6-6---|-6---6-6-----------|-6---6-6-------------------|-6---6-6-----------|



[Verse] @ 1:07

   e e   R   R   R     e e   R   R
G|-------------------|--------------------|
D|-------------------|--------------------|
A|-------------------|--------------------| x4
E|-6-4-6---6---6---4-|-6-4-6---6---6-4~---|



[Chorus] @ 1:27

       e e R     e e R       e e R               e e e e e e              e e R
G|---------------------|-------------------|------------------------|-------------------|
D|---------------------|-------------------|---------8-6-8-6--------|-------------------|
A|---------------------|-------------------|-----------------8-6~-\-|-------------------|
E|-6---6-6---6---6-6---|-6---6-6-----------|-6---6-6----------------|-6---6-6-----------|

       e e R• e e R e e       e e R               e e e e e e   e e e e       e e R
G|----------------------|-------------------|---------8-6-8-6-----------|-------------------|
D|----------------------|-------------------|-----------------8-6-------|-------------------|
A|----------------------|-------------------|---------------------8-6-4-|-------------------|
E|-6---6-6----6-6---6-6-|-6---6-6-----------|-6---6-6-------------------|-6---6-6-----------|



[Verse] @ 1:48

   e e   R   R   R     e e   R   R
G|-------------------|--------------------|
D|-------------------|--------------------|
A|-------------------|--------------------| x8
E|-6-4-6---6---6---4-|-6-4-6---6---6-4~---|




[Chorus] @ 2:31

       e e R     e e R       e e R               e e e e e e              e e R
G|---------------------|-------------------|------------------------|-------------------|
D|---------------------|-------------------|---------8-6-8-6--------|-------------------|
A|---------------------|-------------------|-----------------8-6~-\-|-------------------|
E|-6---6-6---6---6-6---|-6---6-6-----------|-6---6-6----------------|-6---6-6-----------|

       e e R• e e R e e       e e R               e e e e e e   e e e e       e e R
G|----------------------|-------------------|---------8-6-8-6-----------|-------------------|
D|----------------------|-------------------|-----------------8-6-------|-------------------|
A|----------------------|-------------------|---------------------8-6-4-|-------------------|
E|-6---6-6----6-6---6-6-|-6---6-6-----------|-6---6-6-------------------|-6---6-6-----------|


[Outro] @ 2:52

   e e   R   R   R     e e   R   R
G|-------------------|--------------------|
D|-------------------|--------------------|
A|-------------------|--------------------| x6
E|-6-4-6---6---6---4-|-6-4-6---6---6-4~---| The last two times slow down.


************************************

| e   eighth note
| R   rest
| \   Slide down
| ~   Vibrato

************************************
Suggest correction
Give kudos to tab author, rate the tab!
1 2 3 4 5
comments
print report bad tab
guest
You may want to rate the tab now too:
select rating
Wanna post a correction for this tab? Suggest correction