Oops, an error
Loading. Please wait.

Dc Sound Attack bass

by Clutch
2,789 views 6 this week
2 commentsread comments
1 2 3 4 5
x 3
add to favorites
×
Save as Personal and add changes to this tab that will be seen only by you. Learn more ›
×
You can save this tab as Personal to edit and correct it or add notes. All changes will be seen only by you. Learn more »
launch autoscroll
font size
0
reset
guitar tuner
edit
Autoscroll
slow
fast
+/-
esc
set tempo
stop
Author
Difficulty
Probably the most blues influenced song on "Earth Rocker."

Intro
          X2                           X1
     S  S E  E  S E  S E  E  E     S  S E  E  S E  S E  E  E   
G||-----------------------------|-----------------------------|
D||-----------------------------|-----------------------------|
A||-----------------------------|--3p-0-0--0--0-3--0-0--0--0--|
E||--3p-0-0--0--0-3--0-0--0--0--|-----------------------------|

       X1
  S  S E  E  S E  S E  E  E  
-----------------------------|
-----------------------2-----|
--3p-0-0--0--0-3--0-0-----0--|
-----------------------------|


Pre-Chorus
     X2                            X2
  E.  E.  E.  S S S S S S S    E.  E.  E.  S S S S S S S  
----------------------------|----------------------------|
----------------------------|----------------------------|
--------------7-6-5---------|--------------5-4-3---------|
--7---7---7---------7-6-5-0-|--5---5---5---------5-4-3-0-|

At the end:
  E  E  H.            
---------------------|
---------------------|
---------------------|
--5------------------|

Chorus

  S S S E.  E  S S S S S S S S    E  E  E.  E.  E  Q                   
-------------------------------|------------------------|
-------------------------------|------------------------|
--7-----7------7-7-7-7-7-7-7-7-|--7----------------7----|
----0-0-----0------------------|-----0--3---0---0-------|

Break (Cowbell Time)

  W                   Q     H.           
-------------------|---------------------|
-------------------|---------------------|
-------------------|--7\-----------------|
--0----------------|---------------------|


  E.  E  S S E.  E  S E    
-------------------------||
-------------------------||
--7----------------------||
------0--0-0-3---0--0-0--||




Duration Legend
---------------
W - whole
H - half
Q - quarter
E - 8th
S - 16th
T - 32nd
X - 64th
. - note dotted
|-n-|  - n-tuplets


Tablature Legend
----------------
L - tied note
x - dead note
g - grace note
(n) - ghost note
p - pull off
/ -  slide into from below or out of upwards
\ -  slide into from above or out of downwards
~ - vibrato
W - wide vibrato

            
            
Suggest correction
Creating personal tab
Creating personal tab
You can edit any tab online and save it as your Personal.

You can edit, replace or remove any tab part or add personal notes – all changes will be seen only by you.

Personal tabs can be accessed anytime from any device, even offline.
Learn more »
Give kudos to tab author, rate the tab!
1 2 3 4 5
comments
print report bad tab
2 comments total.
0 reply
ckb614 10 Apr 15, 2013 10:35 PM

I'm not sure about this, but I think I hear one slightly different note in the prechorus. Let me know what you think

Pre-Chorus
X2 X2
E. E. E. S S S S S S S E. E. E. S S S S S S S
----------------------------|----------------------------|
----------------------------|----------------------------|
--------------7-6-5---------|--------------5-4-3---------|
--7---7---7---------7-6-5-6-|--5---5---5---------5-4-3-4-|

guest
You may want to rate the tab now too:
select rating
Wanna post a correction for this tab? Suggest correction