Oops, an error
Loading. Please wait.

Earthworm Bass Tab

348 views 1 this week
no commentswrite comment
1 2 3 4 5
please rate
add to favorites
launch autoscroll
font size
0
reset
guitar tuner
Tab Pro tools
  • play this tab
  • loop segment
  • change instrument
  • show fretboard
  • metronome
Autoscroll
slow
fast
+/-
esc
set tempo
stop
Contributor
1st half of song riff 1
G|----------------------------------|
D|----------------------------------|
A|--0--0--0---------0--0--1--0------|
E|----------------------------------|

riff 2
G|-----------------------------------|
D|-----------------------------------|
A|---0--0--0--0-------0--0--0-3333333|
E|--3--3--3--3-------3--3--3---------|

second half: (basically variations on the intro)riff 3
G|----------------------------------|
D|----------------------------------|
A|--0000000---------0000001110------|
E|----------------------------------|

riff 4
G|----------------------------------|
D|----------------------------------|
A|--0--00-0---------0--00-1--0------|
E|----------------------------------|

riff 5
G|----------------------------------|
D|----------------------------------|
A|--0--00-0---------0--00-1--0------|
E|------------------------------4-3-|

riff 6 - outro
G|----------------------------------|
D|----------------------------------|
A|--0--0--0---------0--1--0---------|
E|---------------------------4--3-2-|
comments
We did not receive enough feedback on this tab! Please rate:
print report bad tab
1 2 3 4 5
I want to post or [tab]
guest
You may want to rate the tab now too:
select rating
Please do not post tabs as comments. Select "correction" instead!