Oops, an error
Loading. Please wait.

Ghost Bass Tab

version 1
version 1

Whole song

Interactive

1,650 views 3 this week
no commentswrite comment
1 2 3 4 5
please rate
add to favorites
launch autoscroll
font size
0
reset
guitar tuner
Autoscroll
slow
fast
+/-
esc
set tempo
stop
Help us to improve Ultimate-Guitar.com Take our survey!
×
CLUTCH - GHOST (bass)

album: Blast Tyrant
tabbed by: badjokegoneworse

Note: all the "10/11"s are high notes, not "-1-0-/-1-1-", except
for the slide in the bridge, which goes "-1-1-" to "-11-".

Verse: ("the wooden coffer")
G|----------|      |------------------------------------------|
D|----------|      |----------------------810-----------------|
A|--------8-| [x4] |------------68-8810-10------------8-------| 
E|-8-88811--|      |-6-66-6-68-8---------------8-88811-8-88-8-|

Refrain:
G|-----------------------------------------|
D|-----8----------------------8------------|
A|--810-108--88----------8-810-108--88-----| [x2]
E|-8-------11--11-6-66-6----------11--11-8-|

[Verse]
[Refrain]

Bridge:
G|---------------------------------------------------|
D|---------------------------------------------------|
A|--------------10101010-----------886--10101010-----| [x2]
E|-868-11/s\11----------6668---868--------------6668-|

Link:
G|------------|
D|------------|
A|---------63-|
E|-1-1--1-3---|

[Verse]
[Refrain x2]
[Link]

Any questions/suggestions? There is this messaging-thingy on this
website...
Suggest correction
Give kudos to tab author, rate the tab!
1 2 3 4 5
comments
print report bad tab
guest
You may want to rate the tab now too:
select rating
Please do not post tabs as comments. Select "correction" instead!