Oops, an error
Loading. Please wait.

Gone Cold bass

version 1
version 1

Whole song

Interactive

by Clutch
7,136 views 12 this week
2 commentsread comments
1 2 3 4 5
x 4
add to favorites
×
Save as Personal and add changes to this tab that will be seen only by you. Learn more ›
×
You can save this tab as Personal to edit and correct it or add notes. All changes will be seen only by you. Learn more »
launch autoscroll
font size
0
reset
guitar tuner
edit
Autoscroll
slow
fast
+/-
esc
set tempo
stop
Author
Difficulty
Gone Cold is the only slow, quiet song on Earth Rocker, and it is probably going to be 
one of the most memorable. Although repetitive (as with most Clutch songs), you can play 
it for hours without getting bored.


Intro/Verse/Outro

     E  Q    Q    E    Q       E  Q    Q.     Q
G||-------------------------|----------------------|
D||-------------------------|----------------------|
A||----------6-------6g8----|----------6------L----|
E||--8------------8---------|--8-------------------|


Break(s)

  W
----------------------|
----------------------|
----------------------|
--8-------------------|


Chorus/Solo

  Q.     Q    Q    S  S    E  Q    Q    E    Q
------------------------|-------------------------|
-------------------8----|-------------------------|
---------6----8------10-|----------6-------6g8----|
--8---------------------|--8------------8---------|



Duration Legend
---------------
W - whole
H - half
Q - quarter
E - 8th
S - 16th
T - 32nd
X - 64th
. - note dotted
|-n-|  - n-tuplets


Tablature Legend
----------------
L - tied note
x - dead note
g - grace note
h - hammer on
p - pull off
S - shift slide
/ -  slide into from below or out of upwards
\ -  slide into from above or out of downwards

            
            
Suggest correction
Creating personal tab
Creating personal tab
You can edit any tab online and save it as your Personal.

You can edit, replace or remove any tab part or add personal notes – all changes will be seen only by you.

Personal tabs can be accessed anytime from any device, even offline.
Learn more »
comments
print report bad tab
2 comments total.
0 reply
790FX 736 Aug 19, 2016 06:00 PM

Simple riff, but great feeling. Good tab!

guest
You may want to rate the tab now too:
select rating
Wanna post a correction for this tab? Suggest correction