Oops, an error
Loading. Please wait.

Gone Cold Tab

124 views 9 this week
no commentswrite comment
1 2 3 4 5
3 more votes to show rating
add to favorites
launch autoscroll
font size
0
reset
how to read this tab
guitar tuner
Autoscroll
slow
fast
+/-
esc
set tempo
stop
Help us to improve Ultimate-Guitar.com Take our survey!
×
Author
Difficulty
Tuning
newg [tm] 45,832
intermediate
C G C G C E
----------------------------------------------------------------------------------------------------
                           Clutch - Gone Cold
----------------------------------------------------------------------------------------------------

Album : Earth Rocker (2013)
Tempo : 79
E-mail: gwendal.mollo@orange.fr
Tabbed by: newg    (http://profile.ultimate-guitar.com/newg/)

Open C

[Verse]
e|-----------------------------|
C|-----------------------------|
G|-----------------------------|
C|--0----3---0-3/5---0----3~---|
G|-----------------------------|
C|-----------------------------|

[Chorus]
e|---------------------------------------------------|
C|---------------------------------------------------|
G|---------------------------------------------------|
C|--3-3-3---3-3-3--3/5-------------------------------|
G|----------------------3---3--3--3-3-0h3h5-0h3h5----|
C|---------------------------------------------------|

[Solo]
e|------------------------------------------------------------|
C|--3--3--3-2--2--2--2h3--3--2-0------0------0------0---------|
G|---------------------------------3----3-2----2s3--3--2--0---|
C|----0--0--0----0--0-----0----0-------------------------(0)--|
G|------------------------------------------------------------|
C|------------------------------------------------------------|

[Solo Final] 
e|----------------------------------------------------------------|
C|--3--3--3-2--2--2--2h3--3--2-0----------------------------------|
G|---------------------------------3--3--3-2--2--2-2s3--3--2--0---|
C|----------------------------------------------------------------|
G|----------------------------------------------------------------|
C|----------------------------------------------------------------|

[Solo 2]
e|-------------------------------------------------------------|    |---|
C|--12-12-12-12--------------3/5------------3/5-------2h3h2-0--|    |---|
G|--12-12-12-12--------------3/5------------3/5----------------|    |---|
C|--12-12-12-12--------------3/5------------3/5----------------|    |-0-|
G|-------------------------------------------------------------|    |---|
C|-------------------------------------------------------------| x2 |---|

[Verse 3]
e|-----------------------------|
C|-----------------------------|
G|----------3------------------|
C|--0---3-------3--------------|
G|-----------------------------|
C|-----------------------------|







[Intro]
Riff verse x2
Riff solo 


[Verse 1]
Riff 
Swan boats in daisy chains
Riff 
Can't seem to recall, My true given name
Riff 
     I see my footprints, How they come, how they go
Riff 
     Was that yesterday? Or only a moment ago?

[Chorus]
   Riff                      Riff 
My heart has gone, I've gone cold    x2


[Verse 2]
    Riff 
The past gives way, To a cold winter field
Riff 
    With ground below, hard as steel
Riff 
    Beyond the hill, a distant song
         Riff 
But that hill Keeps going on and on

[Chorus]

[Solo] x2
[Solo 2]

[Verse 3]
Riff       Riff
Swan boats     in daisy chains
Riff
    Can't seem to recall
Riff
    Any given name
   Riff
I see the footprints
Riff
How they come, how they go
Riff
    Was that only a moment?
   Riff
Or many years ago?

[Chorus]

[Chorus] [Solo]

[Solo Final] 
Suggest correction
Give kudos to tab author, rate the tab!
1 2 3 4 5
comments
print report bad tab
guest
You may want to rate the tab now too:
select rating
Wanna post a correction for this tab? Suggest correction