Oops, an error
Loading. Please wait.

Heirloom 13 Bass Tab

351 views 1 this week
no commentswrite comment
1 2 3 4 5
1 last vote to show rating
add to favorites
launch autoscroll
font size
0
reset
guitar tuner
Autoscroll
slow
fast
+/-
esc
set tempo
stop
Help us to improve Ultimate-Guitar.com Take our survey!
×
riff 1 - "rise now my son"
G|----------------------------------|
D|----------------------------------|
A|----------------------------------|
E|--0---------------3--00-3--00-3-2-|

riff 2
G|----------------------------------|
D|----------------------------------|
A|----------------------------------|
E|--2-2-2-2-2-2-2-2-2-2-2-2-2-2-2-2-|

riff 3 - "I don't want it... and I don't need it"
G|----------------------------------|
D|----------------------------------|
A|--7-------------------------------|
E|--0---------------5--00-5--00-5-0-|

riff 4 - "take your heirloom to hell"
G|----------------------------------|
D|----------------------------------|
A|----------------------------------|
E|--3--2--3--2--3-2-3--2--3--2--3-2-|

riff 4 variation - just steady plucking instead of ringing out
G|----------------------------------|
D|----------------------------------|
A|----------------------------------|
E|--33322233322233223332223332223322|
Suggest correction
Give kudos to tab author, rate the tab!
1 2 3 4 5
comments
print report bad tab
guest
You may want to rate the tab now too:
select rating
Wanna post a correction for this tab? Suggest correction