Oops, an error
Loading. Please wait.

I Have The Body Tab

1,994 views 1 this week
2 commentsread comments
1 2 3 4 5
2 more votes to show rating
add to favorites
launch autoscroll
font size
0
reset
how to read this tab
guitar tuner
Autoscroll
slow
fast
+/-
esc
set tempo
stop
Help us to improve Ultimate-Guitar.com Take our survey!
×
#----------------------------------PLEASE NOTE---------------------------------#
#This file is the author's own work and represents their interpretation of the #
#song. You may only use this file for private study, scholarship, or research. #
#------------------------------------------------------------------------------##
From: Burning.Inside@f929.n273.z1.fidonet.org (Burning Inside)
Date: 05 Dec 95 22:43:53 -0500
Subject: TAB: "I Have the Body of John Wilkes Booth" by Clutch


From: burning.inside@f929.n273.z1.fidonet.org

I Have the Body                 by Clutch
   of John Wilkes Booth         from the album "Clutch"
                                words and music by Tim Sult, Dan Maines,
                                        Neil Fallon, and Jean-Paul Gaster
                                tabbed by Tom Mallon
Riff 1
E |-----------------------------------|---------------|  play the first part of
B |-----------------------------------|---------------| the riff three times,
G |.-------------------------------5-.|-7-----7--5----| and on fourth sub. the
D |.------7-7h8p7--------7-7h8p7---5-.|-7-----7--5----| ending here for the C5
A |-0--0--0--------0--0--0---------3--|-5--0--5--3----|
E |-----------------------------------|---------------|

Riff 2
E |----------------------------|----------------------|
B |----------------------------|----------------------| same here
G |.------------------------5-.|-7-----7--5-----------|
D |.------------------------5-.|-7-----7--5-----------|
A |-------------------------3--|-5--0--5--3-----------|
E |-3h5-5-5-5-5--3h5-5-5-5-----|----------------------|
    ^these single notes are actually played by the bass. I like to play
    them when I play the song. If you want to use them, use a palm-mute
    on them. Otherwise, ignore them.

Riff 3 (Chorus)
E |--------------------------------------------|
B |--------------------------------------------|
G |.-7-5--2-5-7-5---7-5-2-5-7---7-5--2-5-7-5--.|
D |.-7-5--2-5-7-5---7-5-2-5-7---7-5--2-5-7-5--.|
A |--5-3--0-3-5-3---5-3-0-3-5---5-3--0-3-5-3---|
E |--------------------------------------------|
Suggest correction
Give kudos to tab author, rate the tab!
1 2 3 4 5
comments
print report bad tab
2 comments total.
0 reply
BobDoleCult 41 Jul 20, 2008 12:00 AM

its a bend not a hammer on in the intro.

0 reply
learninclutch 10 Aug 12, 2008 03:01 PM

B---------------------------|----------------
G--------2b---------2b----5b|------2b--------
D-------------------------5b|----------------
A-0-0-0------0-0-0------0---|0-0-0------0-0-0
E---------------------------|----------------


What do you think? Intro?









D-------------------------5b
A-0-0-0------0-0-0------0---
E

guest
You may want to rate the tab now too:
select rating
Wanna post a correction for this tab? Suggest correction